ISO-10303-21;
HEADER;
FILE_DESCRIPTION( ( 'STEP AP203' ), ' ' );
FILE_NAME( 'p:/temp/worker_2045/3000_5824/app_40_02018012618434922559685192d056f_000000_00_00_000000/format_1/3.57.010.stp', '2018-01-26T17:43:49', ( '' ), ( '' ), ' ', 'PARTsolutions', ' ' );
FILE_SCHEMA( ( 'CONFIG_CONTROL_DESIGN' ) );
ENDSEC;
DATA;
#1 = DESIGN_CONTEXT( '', #27, 'design' );
#2 = APPLICATION_PROTOCOL_DEFINITION( 'international standard', 'config_control_design', 1994, #27 );
#3 = PRODUCT_CATEGORY_RELATIONSHIP( 'NONE', 'NONE', #28, #29 );
#4 = DATE_AND_TIME( #30, #31 );
#5 = DATE_TIME_ROLE( 'creation_date' );
#6 = DATE_TIME_ROLE( 'classification_date' );
#7 = PERSON_AND_ORGANIZATION_ROLE( 'creator' );
#8 = PERSON_AND_ORGANIZATION_ROLE( 'design_supplier' );
#9 = PERSON_AND_ORGANIZATION_ROLE( 'classification_officer' );
#10 = PERSON_AND_ORGANIZATION_ROLE( 'design_owner' );
#11 = APPROVAL_PERSON_ORGANIZATION( #32, #33, #34 );
#12 = APPROVAL_DATE_TIME( #4, #33 );
#13 = CC_DESIGN_APPROVAL( #33, ( #35, #36, #37 ) );
#14 = CC_DESIGN_DATE_AND_TIME_ASSIGNMENT( #4, #5, ( #37 ) );
#15 = CC_DESIGN_DATE_AND_TIME_ASSIGNMENT( #4, #6, ( #35 ) );
#16 = CC_DESIGN_PERSON_AND_ORGANIZATION_ASSIGNMENT( #32, #10, ( #38 ) );
#17 = CC_DESIGN_PERSON_AND_ORGANIZATION_ASSIGNMENT( #32, #7, ( #37 ) );
#18 = CC_DESIGN_PERSON_AND_ORGANIZATION_ASSIGNMENT( #32, #7, ( #36 ) );
#19 = CC_DESIGN_PERSON_AND_ORGANIZATION_ASSIGNMENT( #32, #8, ( #36 ) );
#20 = CC_DESIGN_SECURITY_CLASSIFICATION( #35, ( #36 ) );
#21 = CC_DESIGN_PERSON_AND_ORGANIZATION_ASSIGNMENT( #32, #9, ( #35 ) );
#22 = SHAPE_DEFINITION_REPRESENTATION( #39, #40 );
#23 =  ( GEOMETRIC_REPRESENTATION_CONTEXT( 3 )GLOBAL_UNCERTAINTY_ASSIGNED_CONTEXT( ( #43 ) )GLOBAL_UNIT_ASSIGNED_CONTEXT( ( #45, #46, #47 ) )REPRESENTATION_CONTEXT( 'NONE', 'WORKSPACE' ) );
#27 = APPLICATION_CONTEXT( 'configuration controlled 3D designs of mechanical parts and assemblies' );
#28 = PRODUCT_CATEGORY( 'part', 'NONE' );
#29 = PRODUCT_RELATED_PRODUCT_CATEGORY( 'detail', ' ', ( #38 ) );
#30 = CALENDAR_DATE( 2018, 26, 0 );
#31 = LOCAL_TIME( 18, 43, 49.0000000000000, #49 );
#32 = PERSON_AND_ORGANIZATION( #50, #51 );
#33 = APPROVAL( #52, 'SOLID MODEL' );
#34 = APPROVAL_ROLE( 'APPROVED' );
#35 = SECURITY_CLASSIFICATION( '', '', #53 );
#36 = PRODUCT_DEFINITION_FORMATION_WITH_SPECIFIED_SOURCE( ' ', 'NONE', #38, .NOT_KNOWN. );
#37 = PRODUCT_DEFINITION( 'NONE', 'NONE', #36, #1 );
#38 = PRODUCT( '_3.57.010', '_3.57.010', 'PART-_3.57.010-DESC', ( #54 ) );
#39 = PRODUCT_DEFINITION_SHAPE( 'NONE', 'NONE', #37 );
#40 = ADVANCED_BREP_SHAPE_REPRESENTATION( '_3.57.010', ( #55, #56 ), #23 );
#43 = UNCERTAINTY_MEASURE_WITH_UNIT( LENGTH_MEASURE( 0.00100000000000000 ), #45, '', '' );
#45 =  ( CONVERSION_BASED_UNIT( 'MILLIMETRE', #59 )LENGTH_UNIT(  )NAMED_UNIT( #62 ) );
#46 =  ( NAMED_UNIT( #64 )PLANE_ANGLE_UNIT(  )SI_UNIT( $, .RADIAN. ) );
#47 =  ( NAMED_UNIT( #64 )SI_UNIT( $, .STERADIAN. )SOLID_ANGLE_UNIT(  ) );
#49 = COORDINATED_UNIVERSAL_TIME_OFFSET( 1, 0, .AHEAD. );
#50 = PERSON( '', 'UNSPECIFIED', $, $, $, $ );
#51 = ORGANIZATION( 'UNSPECIFIED', 'UNSPECIFIED', 'UNSPECIFIED' );
#52 = APPROVAL_STATUS( 'approved' );
#53 = SECURITY_CLASSIFICATION_LEVEL( 'unclassified' );
#54 = MECHANICAL_CONTEXT( '', #27, 'mechanical' );
#55 = MANIFOLD_SOLID_BREP( '_3.57.010', #70 );
#56 = AXIS2_PLACEMENT_3D( '', #71, #72, #73 );
#59 = LENGTH_MEASURE_WITH_UNIT( LENGTH_MEASURE( 1.00000000000000 ), #74 );
#62 = DIMENSIONAL_EXPONENTS( 1.00000000000000, 0.000000000000000, 0.000000000000000, 0.000000000000000, 0.000000000000000, 0.000000000000000, 0.000000000000000 );
#64 = DIMENSIONAL_EXPONENTS( 0.000000000000000, 0.000000000000000, 0.000000000000000, 0.000000000000000, 0.000000000000000, 0.000000000000000, 0.000000000000000 );
#70 = CLOSED_SHELL( '', ( #75, #76, #77, #78, #79, #80, #81, #82, #83, #84, #85, #86, #87, #88, #89, #90, #91 ) );
#71 = CARTESIAN_POINT( '', ( 0.000000000000000, 0.000000000000000, 0.000000000000000 ) );
#72 = DIRECTION( '', ( 0.000000000000000, 0.000000000000000, 1.00000000000000 ) );
#73 = DIRECTION( '', ( 1.00000000000000, 0.000000000000000, 0.000000000000000 ) );
#74 =  ( LENGTH_UNIT(  )NAMED_UNIT( #62 )SI_UNIT( .MILLI., .METRE. ) );
#75 = ADVANCED_FACE( '', ( #93, #94 ), #95, .F. );
#76 = ADVANCED_FACE( '', ( #96, #97 ), #98, .T. );
#77 = ADVANCED_FACE( '', ( #99, #100 ), #101, .F. );
#78 = ADVANCED_FACE( '', ( #102, #103 ), #104, .T. );
#79 = ADVANCED_FACE( '', ( #105, #106 ), #107, .F. );
#80 = ADVANCED_FACE( '', ( #108, #109 ), #110, .T. );
#81 = ADVANCED_FACE( '', ( #111, #112 ), #113, .T. );
#82 = ADVANCED_FACE( '', ( #114, #115 ), #116, .F. );
#83 = ADVANCED_FACE( '', ( #117, #118 ), #119, .T. );
#84 = ADVANCED_FACE( '', ( #120, #121 ), #122, .F. );
#85 = ADVANCED_FACE( '', ( #123, #124 ), #125, .T. );
#86 = ADVANCED_FACE( '', ( #126, #127 ), #128, .T. );
#87 = ADVANCED_FACE( '', ( #129, #130 ), #131, .T. );
#88 = ADVANCED_FACE( '', ( #132, #133 ), #134, .F. );
#89 = ADVANCED_FACE( '', ( #135, #136 ), #137, .T. );
#90 = ADVANCED_FACE( '', ( #138, #139 ), #140, .F. );
#91 = ADVANCED_FACE( '', ( #141, #142 ), #143, .T. );
#93 = FACE_BOUND( '', #144, .T. );
#94 = FACE_OUTER_BOUND( '', #145, .T. );
#95 = PLANE( '', #146 );
#96 = FACE_BOUND( '', #147, .T. );
#97 = FACE_OUTER_BOUND( '', #148, .T. );
#98 = CONICAL_SURFACE( '', #149, 5.00000000000000, 0.261799387799149 );
#99 = FACE_OUTER_BOUND( '', #150, .T. );
#100 = FACE_BOUND( '', #151, .T. );
#101 = PLANE( '', #152 );
#102 = FACE_BOUND( '', #153, .T. );
#103 = FACE_OUTER_BOUND( '', #154, .T. );
#104 = CONICAL_SURFACE( '', #155, 5.00000000000000, 0.261799387799149 );
#105 = FACE_OUTER_BOUND( '', #156, .T. );
#106 = FACE_BOUND( '', #157, .T. );
#107 = PLANE( '', #158 );
#108 = FACE_BOUND( '', #159, .T. );
#109 = FACE_OUTER_BOUND( '', #160, .T. );
#110 = CONICAL_SURFACE( '', #161, 5.00000000000000, 0.261799387799149 );
#111 = FACE_OUTER_BOUND( '', #162, .T. );
#112 = FACE_OUTER_BOUND( '', #163, .T. );
#113 = CYLINDRICAL_SURFACE( '', #164, 5.00000000000000 );
#114 = FACE_OUTER_BOUND( '', #165, .T. );
#115 = FACE_BOUND( '', #166, .T. );
#116 = PLANE( '', #167 );
#117 = FACE_BOUND( '', #168, .T. );
#118 = FACE_OUTER_BOUND( '', #169, .T. );
#119 = CONICAL_SURFACE( '', #170, 5.00000000000000, 0.261799387799149 );
#120 = FACE_OUTER_BOUND( '', #171, .T. );
#121 = FACE_BOUND( '', #172, .T. );
#122 = PLANE( '', #173 );
#123 = FACE_BOUND( '', #174, .T. );
#124 = FACE_OUTER_BOUND( '', #175, .T. );
#125 = CONICAL_SURFACE( '', #176, 5.00000000000000, 0.261799387799149 );
#126 = FACE_OUTER_BOUND( '', #177, .T. );
#127 = FACE_OUTER_BOUND( '', #178, .T. );
#128 = CYLINDRICAL_SURFACE( '', #179, 5.00000000000000 );
#129 = FACE_OUTER_BOUND( '', #180, .T. );
#130 = FACE_OUTER_BOUND( '', #181, .T. );
#131 = TOROIDAL_SURFACE( '', #182, 4.55000000000000, 0.450000000000000 );
#132 = FACE_OUTER_BOUND( '', #183, .T. );
#133 = FACE_BOUND( '', #184, .T. );
#134 = PLANE( '', #185 );
#135 = FACE_OUTER_BOUND( '', #186, .T. );
#136 = FACE_OUTER_BOUND( '', #187, .T. );
#137 = TOROIDAL_SURFACE( '', #188, 2.45000000000000, 0.450000000000001 );
#138 = FACE_OUTER_BOUND( '', #189, .T. );
#139 = FACE_OUTER_BOUND( '', #190, .T. );
#140 = CYLINDRICAL_SURFACE( '', #191, 2.00000000000000 );
#141 = FACE_OUTER_BOUND( '', #192, .T. );
#142 = FACE_OUTER_BOUND( '', #193, .T. );
#143 = TOROIDAL_SURFACE( '', #194, 2.45000000000001, 0.450000000000007 );
#144 = EDGE_LOOP( '', ( #195 ) );
#145 = EDGE_LOOP( '', ( #196 ) );
#146 = AXIS2_PLACEMENT_3D( '', #197, #198, #199 );
#147 = EDGE_LOOP( '', ( #200 ) );
#148 = EDGE_LOOP( '', ( #201 ) );
#149 = AXIS2_PLACEMENT_3D( '', #202, #203, #204 );
#150 = EDGE_LOOP( '', ( #205 ) );
#151 = EDGE_LOOP( '', ( #206 ) );
#152 = AXIS2_PLACEMENT_3D( '', #207, #208, #209 );
#153 = EDGE_LOOP( '', ( #210 ) );
#154 = EDGE_LOOP( '', ( #211 ) );
#155 = AXIS2_PLACEMENT_3D( '', #212, #213, #214 );
#156 = EDGE_LOOP( '', ( #215 ) );
#157 = EDGE_LOOP( '', ( #216 ) );
#158 = AXIS2_PLACEMENT_3D( '', #217, #218, #219 );
#159 = EDGE_LOOP( '', ( #220 ) );
#160 = EDGE_LOOP( '', ( #221 ) );
#161 = AXIS2_PLACEMENT_3D( '', #222, #223, #224 );
#162 = EDGE_LOOP( '', ( #225 ) );
#163 = EDGE_LOOP( '', ( #226 ) );
#164 = AXIS2_PLACEMENT_3D( '', #227, #228, #229 );
#165 = EDGE_LOOP( '', ( #230 ) );
#166 = EDGE_LOOP( '', ( #231 ) );
#167 = AXIS2_PLACEMENT_3D( '', #232, #233, #234 );
#168 = EDGE_LOOP( '', ( #235 ) );
#169 = EDGE_LOOP( '', ( #236 ) );
#170 = AXIS2_PLACEMENT_3D( '', #237, #238, #239 );
#171 = EDGE_LOOP( '', ( #240 ) );
#172 = EDGE_LOOP( '', ( #241 ) );
#173 = AXIS2_PLACEMENT_3D( '', #242, #243, #244 );
#174 = EDGE_LOOP( '', ( #245 ) );
#175 = EDGE_LOOP( '', ( #246 ) );
#176 = AXIS2_PLACEMENT_3D( '', #247, #248, #249 );
#177 = EDGE_LOOP( '', ( #250 ) );
#178 = EDGE_LOOP( '', ( #251 ) );
#179 = AXIS2_PLACEMENT_3D( '', #252, #253, #254 );
#180 = EDGE_LOOP( '', ( #255 ) );
#181 = EDGE_LOOP( '', ( #256 ) );
#182 = AXIS2_PLACEMENT_3D( '', #257, #258, #259 );
#183 = EDGE_LOOP( '', ( #260 ) );
#184 = EDGE_LOOP( '', ( #261 ) );
#185 = AXIS2_PLACEMENT_3D( '', #262, #263, #264 );
#186 = EDGE_LOOP( '', ( #265 ) );
#187 = EDGE_LOOP( '', ( #266 ) );
#188 = AXIS2_PLACEMENT_3D( '', #267, #268, #269 );
#189 = EDGE_LOOP( '', ( #270 ) );
#190 = EDGE_LOOP( '', ( #271 ) );
#191 = AXIS2_PLACEMENT_3D( '', #272, #273, #274 );
#192 = EDGE_LOOP( '', ( #275 ) );
#193 = EDGE_LOOP( '', ( #276 ) );
#194 = AXIS2_PLACEMENT_3D( '', #277, #278, #279 );
#195 = ORIENTED_EDGE( '', *, *, #280, .F. );
#196 = ORIENTED_EDGE( '', *, *, #281, .T. );
#197 = CARTESIAN_POINT( '', ( 43.0000000000000, 4.27117819658735, 0.000000000000000 ) );
#198 = DIRECTION( '', ( -1.00000000000000, 0.000000000000000, 0.000000000000000 ) );
#199 = DIRECTION( '', ( 0.000000000000000, 0.000000000000000, 1.00000000000000 ) );
#200 = ORIENTED_EDGE( '', *, *, #281, .F. );
#201 = ORIENTED_EDGE( '', *, *, #282, .T. );
#202 = CARTESIAN_POINT( '', ( 40.2800000000000, 0.000000000000000, 0.000000000000000 ) );
#203 = DIRECTION( '', ( -1.00000000000000, 0.000000000000000, -0.000000000000000 ) );
#204 = DIRECTION( '', ( 0.000000000000000, 0.000000000000000, 1.00000000000000 ) );
#205 = ORIENTED_EDGE( '', *, *, #282, .F. );
#206 = ORIENTED_EDGE( '', *, *, #283, .T. );
#207 = CARTESIAN_POINT( '', ( 40.2800000000000, 4.27117819658735, 0.000000000000000 ) );
#208 = DIRECTION( '', ( 1.00000000000000, 0.000000000000000, -0.000000000000000 ) );
#209 = DIRECTION( '', ( -0.000000000000000, 0.000000000000000, -1.00000000000000 ) );
#210 = ORIENTED_EDGE( '', *, *, #283, .F. );
#211 = ORIENTED_EDGE( '', *, *, #284, .T. );
#212 = CARTESIAN_POINT( '', ( 37.5600000000000, 0.000000000000000, 0.000000000000000 ) );
#213 = DIRECTION( '', ( -1.00000000000000, 0.000000000000000, -0.000000000000000 ) );
#214 = DIRECTION( '', ( 0.000000000000000, 0.000000000000000, 1.00000000000000 ) );
#215 = ORIENTED_EDGE( '', *, *, #284, .F. );
#216 = ORIENTED_EDGE( '', *, *, #285, .T. );
#217 = CARTESIAN_POINT( '', ( 37.5600000000000, 4.27117819658735, 0.000000000000000 ) );
#218 = DIRECTION( '', ( 1.00000000000000, 0.000000000000000, -0.000000000000000 ) );
#219 = DIRECTION( '', ( -0.000000000000000, 0.000000000000000, -1.00000000000000 ) );
#220 = ORIENTED_EDGE( '', *, *, #285, .F. );
#221 = ORIENTED_EDGE( '', *, *, #286, .T. );
#222 = CARTESIAN_POINT( '', ( 34.8400000000000, 0.000000000000000, 0.000000000000000 ) );
#223 = DIRECTION( '', ( -1.00000000000000, 0.000000000000000, -0.000000000000000 ) );
#224 = DIRECTION( '', ( 0.000000000000000, 0.000000000000000, 1.00000000000000 ) );
#225 = ORIENTED_EDGE( '', *, *, #286, .F. );
#226 = ORIENTED_EDGE( '', *, *, #287, .T. );
#227 = CARTESIAN_POINT( '', ( 43.0000000000000, 0.000000000000000, 0.000000000000000 ) );
#228 = DIRECTION( '', ( -1.00000000000000, -0.000000000000000, 0.000000000000000 ) );
#229 = DIRECTION( '', ( -0.000000000000000, 0.000000000000000, -1.00000000000000 ) );
#230 = ORIENTED_EDGE( '', *, *, #287, .F. );
#231 = ORIENTED_EDGE( '', *, *, #288, .T. );
#232 = CARTESIAN_POINT( '', ( 24.2800000000000, 4.27117819658735, 0.000000000000000 ) );
#233 = DIRECTION( '', ( 1.00000000000000, 0.000000000000000, -0.000000000000000 ) );
#234 = DIRECTION( '', ( -0.000000000000000, 0.000000000000000, -1.00000000000000 ) );
#235 = ORIENTED_EDGE( '', *, *, #288, .F. );
#236 = ORIENTED_EDGE( '', *, *, #289, .T. );
#237 = CARTESIAN_POINT( '', ( 21.5600000000000, 0.000000000000000, 0.000000000000000 ) );
#238 = DIRECTION( '', ( -1.00000000000000, 0.000000000000000, -0.000000000000000 ) );
#239 = DIRECTION( '', ( 0.000000000000000, 0.000000000000000, 1.00000000000000 ) );
#240 = ORIENTED_EDGE( '', *, *, #289, .F. );
#241 = ORIENTED_EDGE( '', *, *, #290, .T. );
#242 = CARTESIAN_POINT( '', ( 21.5600000000000, 4.27117819658735, 0.000000000000000 ) );
#243 = DIRECTION( '', ( 1.00000000000000, 0.000000000000000, -0.000000000000000 ) );
#244 = DIRECTION( '', ( -0.000000000000000, 0.000000000000000, -1.00000000000000 ) );
#245 = ORIENTED_EDGE( '', *, *, #290, .F. );
#246 = ORIENTED_EDGE( '', *, *, #291, .T. );
#247 = CARTESIAN_POINT( '', ( 18.8400000000000, 0.000000000000000, 0.000000000000000 ) );
#248 = DIRECTION( '', ( -1.00000000000000, 0.000000000000000, -0.000000000000000 ) );
#249 = DIRECTION( '', ( 0.000000000000000, 0.000000000000000, 1.00000000000000 ) );
#250 = ORIENTED_EDGE( '', *, *, #291, .F. );
#251 = ORIENTED_EDGE( '', *, *, #292, .T. );
#252 = CARTESIAN_POINT( '', ( 43.0000000000000, 0.000000000000000, 0.000000000000000 ) );
#253 = DIRECTION( '', ( -1.00000000000000, -0.000000000000000, 0.000000000000000 ) );
#254 = DIRECTION( '', ( -0.000000000000000, 0.000000000000000, -1.00000000000000 ) );
#255 = ORIENTED_EDGE( '', *, *, #293, .T. );
#256 = ORIENTED_EDGE( '', *, *, #292, .F. );
#257 = CARTESIAN_POINT( '', ( 0.450000000000000, 0.000000000000000, 0.000000000000000 ) );
#258 = DIRECTION( '', ( 1.00000000000000, 0.000000000000000, -0.000000000000000 ) );
#259 = DIRECTION( '', ( -0.000000000000000, 0.000000000000000, -1.00000000000000 ) );
#260 = ORIENTED_EDGE( '', *, *, #293, .F. );
#261 = ORIENTED_EDGE( '', *, *, #294, .T. );
#262 = CARTESIAN_POINT( '', ( 0.000000000000000, 0.000000000000000, 0.000000000000000 ) );
#263 = DIRECTION( '', ( 1.00000000000000, 0.000000000000000, -0.000000000000000 ) );
#264 = DIRECTION( '', ( -0.000000000000000, 0.000000000000000, -1.00000000000000 ) );
#265 = ORIENTED_EDGE( '', *, *, #295, .T. );
#266 = ORIENTED_EDGE( '', *, *, #294, .F. );
#267 = CARTESIAN_POINT( '', ( 0.450000000000001, 0.000000000000000, 0.000000000000000 ) );
#268 = DIRECTION( '', ( 1.00000000000000, 0.000000000000000, -0.000000000000000 ) );
#269 = DIRECTION( '', ( -0.000000000000000, 0.000000000000000, -1.00000000000000 ) );
#270 = ORIENTED_EDGE( '', *, *, #296, .T. );
#271 = ORIENTED_EDGE( '', *, *, #295, .F. );
#272 = CARTESIAN_POINT( '', ( 43.0000000000000, 0.000000000000000, 0.000000000000000 ) );
#273 = DIRECTION( '', ( -1.00000000000000, -0.000000000000000, 0.000000000000000 ) );
#274 = DIRECTION( '', ( -0.000000000000000, 0.000000000000000, -1.00000000000000 ) );
#275 = ORIENTED_EDGE( '', *, *, #280, .T. );
#276 = ORIENTED_EDGE( '', *, *, #296, .F. );
#277 = CARTESIAN_POINT( '', ( 42.5500000000000, 0.000000000000000, 0.000000000000000 ) );
#278 = DIRECTION( '', ( 1.00000000000000, 0.000000000000000, -0.000000000000000 ) );
#279 = DIRECTION( '', ( -0.000000000000000, 0.000000000000000, -1.00000000000000 ) );
#280 = EDGE_CURVE( '', #297, #297, #298, .T. );
#281 = EDGE_CURVE( '', #299, #299, #300, .T. );
#282 = EDGE_CURVE( '', #301, #301, #302, .T. );
#283 = EDGE_CURVE( '', #303, #303, #304, .T. );
#284 = EDGE_CURVE( '', #305, #305, #306, .T. );
#285 = EDGE_CURVE( '', #307, #307, #308, .T. );
#286 = EDGE_CURVE( '', #309, #309, #310, .T. );
#287 = EDGE_CURVE( '', #311, #311, #312, .T. );
#288 = EDGE_CURVE( '', #313, #313, #314, .T. );
#289 = EDGE_CURVE( '', #315, #315, #316, .T. );
#290 = EDGE_CURVE( '', #317, #317, #318, .T. );
#291 = EDGE_CURVE( '', #319, #319, #320, .T. );
#292 = EDGE_CURVE( '', #321, #321, #322, .T. );
#293 = EDGE_CURVE( '', #323, #323, #324, .T. );
#294 = EDGE_CURVE( '', #325, #325, #326, .T. );
#295 = EDGE_CURVE( '', #327, #327, #328, .T. );
#296 = EDGE_CURVE( '', #329, #329, #330, .T. );
#297 = VERTEX_POINT( '', #331 );
#298 = CIRCLE( '', #332, 2.45000000000001 );
#299 = VERTEX_POINT( '', #333 );
#300 = CIRCLE( '', #334, 4.27117819658735 );
#301 = VERTEX_POINT( '', #335 );
#302 = CIRCLE( '', #336, 5.00000000000000 );
#303 = VERTEX_POINT( '', #337 );
#304 = CIRCLE( '', #338, 4.27117819658735 );
#305 = VERTEX_POINT( '', #339 );
#306 = CIRCLE( '', #340, 5.00000000000000 );
#307 = VERTEX_POINT( '', #341 );
#308 = CIRCLE( '', #342, 4.27117819658735 );
#309 = VERTEX_POINT( '', #343 );
#310 = CIRCLE( '', #344, 5.00000000000000 );
#311 = VERTEX_POINT( '', #345 );
#312 = CIRCLE( '', #346, 5.00000000000000 );
#313 = VERTEX_POINT( '', #347 );
#314 = CIRCLE( '', #348, 4.27117819658735 );
#315 = VERTEX_POINT( '', #349 );
#316 = CIRCLE( '', #350, 5.00000000000000 );
#317 = VERTEX_POINT( '', #351 );
#318 = CIRCLE( '', #352, 4.27117819658735 );
#319 = VERTEX_POINT( '', #353 );
#320 = CIRCLE( '', #354, 5.00000000000000 );
#321 = VERTEX_POINT( '', #355 );
#322 = CIRCLE( '', #356, 5.00000000000000 );
#323 = VERTEX_POINT( '', #357 );
#324 = CIRCLE( '', #358, 4.55000000000000 );
#325 = VERTEX_POINT( '', #359 );
#326 = CIRCLE( '', #360, 2.45000000000000 );
#327 = VERTEX_POINT( '', #361 );
#328 = CIRCLE( '', #362, 2.00000000000000 );
#329 = VERTEX_POINT( '', #363 );
#330 = CIRCLE( '', #364, 2.00000000000000 );
#331 = CARTESIAN_POINT( '', ( 43.0000000000000, 0.000000000000000, -2.45000000000001 ) );
#332 = AXIS2_PLACEMENT_3D( '', #365, #366, #367 );
#333 = CARTESIAN_POINT( '', ( 43.0000000000000, 0.000000000000000, -4.27117819658735 ) );
#334 = AXIS2_PLACEMENT_3D( '', #368, #369, #370 );
#335 = CARTESIAN_POINT( '', ( 40.2800000000000, 0.000000000000000, -5.00000000000000 ) );
#336 = AXIS2_PLACEMENT_3D( '', #371, #372, #373 );
#337 = CARTESIAN_POINT( '', ( 40.2800000000000, 0.000000000000000, -4.27117819658735 ) );
#338 = AXIS2_PLACEMENT_3D( '', #374, #375, #376 );
#339 = CARTESIAN_POINT( '', ( 37.5600000000000, 0.000000000000000, -5.00000000000000 ) );
#340 = AXIS2_PLACEMENT_3D( '', #377, #378, #379 );
#341 = CARTESIAN_POINT( '', ( 37.5600000000000, 0.000000000000000, -4.27117819658735 ) );
#342 = AXIS2_PLACEMENT_3D( '', #380, #381, #382 );
#343 = CARTESIAN_POINT( '', ( 34.8400000000000, 0.000000000000000, -5.00000000000000 ) );
#344 = AXIS2_PLACEMENT_3D( '', #383, #384, #385 );
#345 = CARTESIAN_POINT( '', ( 24.2800000000000, 0.000000000000000, -5.00000000000000 ) );
#346 = AXIS2_PLACEMENT_3D( '', #386, #387, #388 );
#347 = CARTESIAN_POINT( '', ( 24.2800000000000, 0.000000000000000, -4.27117819658735 ) );
#348 = AXIS2_PLACEMENT_3D( '', #389, #390, #391 );
#349 = CARTESIAN_POINT( '', ( 21.5600000000000, 0.000000000000000, -5.00000000000000 ) );
#350 = AXIS2_PLACEMENT_3D( '', #392, #393, #394 );
#351 = CARTESIAN_POINT( '', ( 21.5600000000000, 0.000000000000000, -4.27117819658735 ) );
#352 = AXIS2_PLACEMENT_3D( '', #395, #396, #397 );
#353 = CARTESIAN_POINT( '', ( 18.8400000000000, 0.000000000000000, -5.00000000000000 ) );
#354 = AXIS2_PLACEMENT_3D( '', #398, #399, #400 );
#355 = CARTESIAN_POINT( '', ( 0.449999999999999, 0.000000000000000, -5.00000000000000 ) );
#356 = AXIS2_PLACEMENT_3D( '', #401, #402, #403 );
#357 = CARTESIAN_POINT( '', ( 0.000000000000000, 0.000000000000000, -4.55000000000000 ) );
#358 = AXIS2_PLACEMENT_3D( '', #404, #405, #406 );
#359 = CARTESIAN_POINT( '', ( 0.000000000000000, 0.000000000000000, -2.45000000000000 ) );
#360 = AXIS2_PLACEMENT_3D( '', #407, #408, #409 );
#361 = CARTESIAN_POINT( '', ( 0.449999999999999, 0.000000000000000, -2.00000000000000 ) );
#362 = AXIS2_PLACEMENT_3D( '', #410, #411, #412 );
#363 = CARTESIAN_POINT( '', ( 42.5500000000000, 0.000000000000000, -2.00000000000000 ) );
#364 = AXIS2_PLACEMENT_3D( '', #413, #414, #415 );
#365 = CARTESIAN_POINT( '', ( 43.0000000000000, 0.000000000000000, 0.000000000000000 ) );
#366 = DIRECTION( '', ( 1.00000000000000, 0.000000000000000, -0.000000000000000 ) );
#367 = DIRECTION( '', ( -0.000000000000000, 0.000000000000000, -1.00000000000000 ) );
#368 = CARTESIAN_POINT( '', ( 43.0000000000000, 0.000000000000000, 0.000000000000000 ) );
#369 = DIRECTION( '', ( 1.00000000000000, 0.000000000000000, -0.000000000000000 ) );
#370 = DIRECTION( '', ( -0.000000000000000, 0.000000000000000, -1.00000000000000 ) );
#371 = CARTESIAN_POINT( '', ( 40.2800000000000, 0.000000000000000, 0.000000000000000 ) );
#372 = DIRECTION( '', ( 1.00000000000000, 0.000000000000000, -0.000000000000000 ) );
#373 = DIRECTION( '', ( -0.000000000000000, 0.000000000000000, -1.00000000000000 ) );
#374 = CARTESIAN_POINT( '', ( 40.2800000000000, 0.000000000000000, 0.000000000000000 ) );
#375 = DIRECTION( '', ( 1.00000000000000, 0.000000000000000, -0.000000000000000 ) );
#376 = DIRECTION( '', ( -0.000000000000000, 0.000000000000000, -1.00000000000000 ) );
#377 = CARTESIAN_POINT( '', ( 37.5600000000000, 0.000000000000000, 0.000000000000000 ) );
#378 = DIRECTION( '', ( 1.00000000000000, 0.000000000000000, -0.000000000000000 ) );
#379 = DIRECTION( '', ( -0.000000000000000, 0.000000000000000, -1.00000000000000 ) );
#380 = CARTESIAN_POINT( '', ( 37.5600000000000, 0.000000000000000, 0.000000000000000 ) );
#381 = DIRECTION( '', ( 1.00000000000000, 0.000000000000000, -0.000000000000000 ) );
#382 = DIRECTION( '', ( -0.000000000000000, 0.000000000000000, -1.00000000000000 ) );
#383 = CARTESIAN_POINT( '', ( 34.8400000000000, 0.000000000000000, 0.000000000000000 ) );
#384 = DIRECTION( '', ( 1.00000000000000, 0.000000000000000, -0.000000000000000 ) );
#385 = DIRECTION( '', ( -0.000000000000000, 0.000000000000000, -1.00000000000000 ) );
#386 = CARTESIAN_POINT( '', ( 24.2800000000000, 0.000000000000000, 0.000000000000000 ) );
#387 = DIRECTION( '', ( 1.00000000000000, 0.000000000000000, -0.000000000000000 ) );
#388 = DIRECTION( '', ( -0.000000000000000, 0.000000000000000, -1.00000000000000 ) );
#389 = CARTESIAN_POINT( '', ( 24.2800000000000, 0.000000000000000, 0.000000000000000 ) );
#390 = DIRECTION( '', ( 1.00000000000000, 0.000000000000000, -0.000000000000000 ) );
#391 = DIRECTION( '', ( -0.000000000000000, 0.000000000000000, -1.00000000000000 ) );
#392 = CARTESIAN_POINT( '', ( 21.5600000000000, 0.000000000000000, 0.000000000000000 ) );
#393 = DIRECTION( '', ( 1.00000000000000, 0.000000000000000, -0.000000000000000 ) );
#394 = DIRECTION( '', ( -0.000000000000000, 0.000000000000000, -1.00000000000000 ) );
#395 = CARTESIAN_POINT( '', ( 21.5600000000000, 0.000000000000000, 0.000000000000000 ) );
#396 = DIRECTION( '', ( 1.00000000000000, 0.000000000000000, -0.000000000000000 ) );
#397 = DIRECTION( '', ( -0.000000000000000, 0.000000000000000, -1.00000000000000 ) );
#398 = CARTESIAN_POINT( '', ( 18.8400000000000, 0.000000000000000, 0.000000000000000 ) );
#399 = DIRECTION( '', ( 1.00000000000000, 0.000000000000000, -0.000000000000000 ) );
#400 = DIRECTION( '', ( -0.000000000000000, 0.000000000000000, -1.00000000000000 ) );
#401 = CARTESIAN_POINT( '', ( 0.449999999999999, 0.000000000000000, 0.000000000000000 ) );
#402 = DIRECTION( '', ( 1.00000000000000, 0.000000000000000, -0.000000000000000 ) );
#403 = DIRECTION( '', ( -0.000000000000000, 0.000000000000000, -1.00000000000000 ) );
#404 = CARTESIAN_POINT( '', ( 0.000000000000000, 0.000000000000000, 0.000000000000000 ) );
#405 = DIRECTION( '', ( 1.00000000000000, 0.000000000000000, -0.000000000000000 ) );
#406 = DIRECTION( '', ( -0.000000000000000, 0.000000000000000, -1.00000000000000 ) );
#407 = CARTESIAN_POINT( '', ( 0.000000000000000, 0.000000000000000, 0.000000000000000 ) );
#408 = DIRECTION( '', ( 1.00000000000000, 0.000000000000000, -0.000000000000000 ) );
#409 = DIRECTION( '', ( -0.000000000000000, 0.000000000000000, -1.00000000000000 ) );
#410 = CARTESIAN_POINT( '', ( 0.449999999999999, 0.000000000000000, 0.000000000000000 ) );
#411 = DIRECTION( '', ( 1.00000000000000, 0.000000000000000, -0.000000000000000 ) );
#412 = DIRECTION( '', ( -0.000000000000000, 0.000000000000000, -1.00000000000000 ) );
#413 = CARTESIAN_POINT( '', ( 42.5500000000000, 0.000000000000000, 0.000000000000000 ) );
#414 = DIRECTION( '', ( 1.00000000000000, 0.000000000000000, -0.000000000000000 ) );
#415 = DIRECTION( '', ( -0.000000000000000, 0.000000000000000, -1.00000000000000 ) );
ENDSEC;
END-ISO-10303-21;
