ISO-10303-21;
HEADER;
FILE_DESCRIPTION( ( 'STEP AP203' ), ' ' );
FILE_NAME( 'p:/temp/worker_2031/4892_1260/app_41_02018012618525058160200192d056f_000000_00_00_000000/format_1/3.57.012.stp', '2018-01-26T17:52:51', ( '' ), ( '' ), ' ', 'PARTsolutions', ' ' );
FILE_SCHEMA( ( 'CONFIG_CONTROL_DESIGN' ) );
ENDSEC;
DATA;
#1 = DESIGN_CONTEXT( '', #27, 'design' );
#2 = APPLICATION_PROTOCOL_DEFINITION( 'international standard', 'config_control_design', 1994, #27 );
#3 = PRODUCT_CATEGORY_RELATIONSHIP( 'NONE', 'NONE', #28, #29 );
#4 = DATE_AND_TIME( #30, #31 );
#5 = DATE_TIME_ROLE( 'creation_date' );
#6 = DATE_TIME_ROLE( 'classification_date' );
#7 = PERSON_AND_ORGANIZATION_ROLE( 'creator' );
#8 = PERSON_AND_ORGANIZATION_ROLE( 'design_supplier' );
#9 = PERSON_AND_ORGANIZATION_ROLE( 'classification_officer' );
#10 = PERSON_AND_ORGANIZATION_ROLE( 'design_owner' );
#11 = APPROVAL_PERSON_ORGANIZATION( #32, #33, #34 );
#12 = APPROVAL_DATE_TIME( #4, #33 );
#13 = CC_DESIGN_APPROVAL( #33, ( #35, #36, #37 ) );
#14 = CC_DESIGN_DATE_AND_TIME_ASSIGNMENT( #4, #5, ( #37 ) );
#15 = CC_DESIGN_DATE_AND_TIME_ASSIGNMENT( #4, #6, ( #35 ) );
#16 = CC_DESIGN_PERSON_AND_ORGANIZATION_ASSIGNMENT( #32, #10, ( #38 ) );
#17 = CC_DESIGN_PERSON_AND_ORGANIZATION_ASSIGNMENT( #32, #7, ( #37 ) );
#18 = CC_DESIGN_PERSON_AND_ORGANIZATION_ASSIGNMENT( #32, #7, ( #36 ) );
#19 = CC_DESIGN_PERSON_AND_ORGANIZATION_ASSIGNMENT( #32, #8, ( #36 ) );
#20 = CC_DESIGN_SECURITY_CLASSIFICATION( #35, ( #36 ) );
#21 = CC_DESIGN_PERSON_AND_ORGANIZATION_ASSIGNMENT( #32, #9, ( #35 ) );
#22 = SHAPE_DEFINITION_REPRESENTATION( #39, #40 );
#23 =  ( GEOMETRIC_REPRESENTATION_CONTEXT( 3 )GLOBAL_UNCERTAINTY_ASSIGNED_CONTEXT( ( #43 ) )GLOBAL_UNIT_ASSIGNED_CONTEXT( ( #45, #46, #47 ) )REPRESENTATION_CONTEXT( 'NONE', 'WORKSPACE' ) );
#27 = APPLICATION_CONTEXT( 'configuration controlled 3D designs of mechanical parts and assemblies' );
#28 = PRODUCT_CATEGORY( 'part', 'NONE' );
#29 = PRODUCT_RELATED_PRODUCT_CATEGORY( 'detail', ' ', ( #38 ) );
#30 = CALENDAR_DATE( 2018, 26, 0 );
#31 = LOCAL_TIME( 18, 52, 51.0000000000000, #49 );
#32 = PERSON_AND_ORGANIZATION( #50, #51 );
#33 = APPROVAL( #52, 'SOLID MODEL' );
#34 = APPROVAL_ROLE( 'APPROVED' );
#35 = SECURITY_CLASSIFICATION( '', '', #53 );
#36 = PRODUCT_DEFINITION_FORMATION_WITH_SPECIFIED_SOURCE( ' ', 'NONE', #38, .NOT_KNOWN. );
#37 = PRODUCT_DEFINITION( 'NONE', 'NONE', #36, #1 );
#38 = PRODUCT( '_3.57.012', '_3.57.012', 'PART-_3.57.012-DESC', ( #54 ) );
#39 = PRODUCT_DEFINITION_SHAPE( 'NONE', 'NONE', #37 );
#40 = ADVANCED_BREP_SHAPE_REPRESENTATION( '_3.57.012', ( #55, #56 ), #23 );
#43 = UNCERTAINTY_MEASURE_WITH_UNIT( LENGTH_MEASURE( 0.00100000000000000 ), #45, '', '' );
#45 =  ( CONVERSION_BASED_UNIT( 'MILLIMETRE', #59 )LENGTH_UNIT(  )NAMED_UNIT( #62 ) );
#46 =  ( NAMED_UNIT( #64 )PLANE_ANGLE_UNIT(  )SI_UNIT( $, .RADIAN. ) );
#47 =  ( NAMED_UNIT( #64 )SI_UNIT( $, .STERADIAN. )SOLID_ANGLE_UNIT(  ) );
#49 = COORDINATED_UNIVERSAL_TIME_OFFSET( 1, 0, .AHEAD. );
#50 = PERSON( '', 'UNSPECIFIED', $, $, $, $ );
#51 = ORGANIZATION( 'UNSPECIFIED', 'UNSPECIFIED', 'UNSPECIFIED' );
#52 = APPROVAL_STATUS( 'approved' );
#53 = SECURITY_CLASSIFICATION_LEVEL( 'unclassified' );
#54 = MECHANICAL_CONTEXT( '', #27, 'mechanical' );
#55 = MANIFOLD_SOLID_BREP( '_3.57.012', #70 );
#56 = AXIS2_PLACEMENT_3D( '', #71, #72, #73 );
#59 = LENGTH_MEASURE_WITH_UNIT( LENGTH_MEASURE( 1.00000000000000 ), #74 );
#62 = DIMENSIONAL_EXPONENTS( 1.00000000000000, 0.000000000000000, 0.000000000000000, 0.000000000000000, 0.000000000000000, 0.000000000000000, 0.000000000000000 );
#64 = DIMENSIONAL_EXPONENTS( 0.000000000000000, 0.000000000000000, 0.000000000000000, 0.000000000000000, 0.000000000000000, 0.000000000000000, 0.000000000000000 );
#70 = CLOSED_SHELL( '', ( #75, #76, #77, #78, #79, #80, #81, #82, #83, #84, #85, #86, #87, #88, #89, #90, #91, #92, #93, #94 ) );
#71 = CARTESIAN_POINT( '', ( 0.000000000000000, 0.000000000000000, 0.000000000000000 ) );
#72 = DIRECTION( '', ( 0.000000000000000, 0.000000000000000, 1.00000000000000 ) );
#73 = DIRECTION( '', ( 1.00000000000000, 0.000000000000000, 0.000000000000000 ) );
#74 =  ( LENGTH_UNIT(  )NAMED_UNIT( #62 )SI_UNIT( .MILLI., .METRE. ) );
#75 = ADVANCED_FACE( '', ( #96, #97 ), #98, .F. );
#76 = ADVANCED_FACE( '', ( #99, #100 ), #101, .T. );
#77 = ADVANCED_FACE( '', ( #102, #103 ), #104, .F. );
#78 = ADVANCED_FACE( '', ( #105, #106 ), #107, .T. );
#79 = ADVANCED_FACE( '', ( #108, #109 ), #110, .F. );
#80 = ADVANCED_FACE( '', ( #111, #112 ), #113, .T. );
#81 = ADVANCED_FACE( '', ( #114, #115 ), #116, .T. );
#82 = ADVANCED_FACE( '', ( #117, #118 ), #119, .T. );
#83 = ADVANCED_FACE( '', ( #120, #121 ), #122, .F. );
#84 = ADVANCED_FACE( '', ( #123, #124 ), #125, .T. );
#85 = ADVANCED_FACE( '', ( #126, #127 ), #128, .F. );
#86 = ADVANCED_FACE( '', ( #129, #130 ), #131, .T. );
#87 = ADVANCED_FACE( '', ( #132, #133 ), #134, .T. );
#88 = ADVANCED_FACE( '', ( #135, #136 ), #137, .F. );
#89 = ADVANCED_FACE( '', ( #138, #139 ), #140, .T. );
#90 = ADVANCED_FACE( '', ( #141, #142 ), #143, .T. );
#91 = ADVANCED_FACE( '', ( #144, #145 ), #146, .F. );
#92 = ADVANCED_FACE( '', ( #147, #148 ), #149, .T. );
#93 = ADVANCED_FACE( '', ( #150, #151 ), #152, .F. );
#94 = ADVANCED_FACE( '', ( #153, #154 ), #155, .T. );
#96 = FACE_BOUND( '', #156, .T. );
#97 = FACE_OUTER_BOUND( '', #157, .T. );
#98 = PLANE( '', #158 );
#99 = FACE_BOUND( '', #159, .T. );
#100 = FACE_OUTER_BOUND( '', #160, .T. );
#101 = CONICAL_SURFACE( '', #161, 6.00000000000000, 0.261799387799149 );
#102 = FACE_OUTER_BOUND( '', #162, .T. );
#103 = FACE_BOUND( '', #163, .T. );
#104 = PLANE( '', #164 );
#105 = FACE_BOUND( '', #165, .T. );
#106 = FACE_OUTER_BOUND( '', #166, .T. );
#107 = CONICAL_SURFACE( '', #167, 6.00000000000000, 0.261799387799149 );
#108 = FACE_OUTER_BOUND( '', #168, .T. );
#109 = FACE_BOUND( '', #169, .T. );
#110 = PLANE( '', #170 );
#111 = FACE_BOUND( '', #171, .T. );
#112 = FACE_OUTER_BOUND( '', #172, .T. );
#113 = CONICAL_SURFACE( '', #173, 6.00000000000000, 0.261799387799150 );
#114 = FACE_OUTER_BOUND( '', #174, .T. );
#115 = FACE_OUTER_BOUND( '', #175, .T. );
#116 = CYLINDRICAL_SURFACE( '', #176, 6.00000000000000 );
#117 = FACE_BOUND( '', #177, .T. );
#118 = FACE_OUTER_BOUND( '', #178, .T. );
#119 = CONICAL_SURFACE( '', #179, 7.00000000000000, 0.352308724674141 );
#120 = FACE_OUTER_BOUND( '', #180, .T. );
#121 = FACE_BOUND( '', #181, .T. );
#122 = PLANE( '', #182 );
#123 = FACE_BOUND( '', #183, .T. );
#124 = FACE_OUTER_BOUND( '', #184, .T. );
#125 = CONICAL_SURFACE( '', #185, 7.00000000000000, 0.261799387799149 );
#126 = FACE_OUTER_BOUND( '', #186, .T. );
#127 = FACE_BOUND( '', #187, .T. );
#128 = PLANE( '', #188 );
#129 = FACE_BOUND( '', #189, .T. );
#130 = FACE_OUTER_BOUND( '', #190, .T. );
#131 = CONICAL_SURFACE( '', #191, 7.00000000000000, 0.261799387799149 );
#132 = FACE_OUTER_BOUND( '', #192, .T. );
#133 = FACE_OUTER_BOUND( '', #193, .T. );
#134 = CYLINDRICAL_SURFACE( '', #194, 7.00000000000000 );
#135 = FACE_OUTER_BOUND( '', #195, .T. );
#136 = FACE_BOUND( '', #196, .T. );
#137 = PLANE( '', #197 );
#138 = FACE_OUTER_BOUND( '', #198, .T. );
#139 = FACE_OUTER_BOUND( '', #199, .T. );
#140 = CYLINDRICAL_SURFACE( '', #200, 6.00000000000000 );
#141 = FACE_OUTER_BOUND( '', #201, .T. );
#142 = FACE_OUTER_BOUND( '', #202, .T. );
#143 = TOROIDAL_SURFACE( '', #203, 5.55000000000000, 0.449999999999999 );
#144 = FACE_OUTER_BOUND( '', #204, .T. );
#145 = FACE_BOUND( '', #205, .T. );
#146 = PLANE( '', #206 );
#147 = FACE_OUTER_BOUND( '', #207, .T. );
#148 = FACE_OUTER_BOUND( '', #208, .T. );
#149 = TOROIDAL_SURFACE( '', #209, 3.45000000000000, 0.450000000000000 );
#150 = FACE_OUTER_BOUND( '', #210, .T. );
#151 = FACE_OUTER_BOUND( '', #211, .T. );
#152 = CYLINDRICAL_SURFACE( '', #212, 3.00000000000000 );
#153 = FACE_OUTER_BOUND( '', #213, .T. );
#154 = FACE_OUTER_BOUND( '', #214, .T. );
#155 = TOROIDAL_SURFACE( '', #215, 3.45000000000001, 0.450000000000005 );
#156 = EDGE_LOOP( '', ( #216 ) );
#157 = EDGE_LOOP( '', ( #217 ) );
#158 = AXIS2_PLACEMENT_3D( '', #218, #219, #220 );
#159 = EDGE_LOOP( '', ( #221 ) );
#160 = EDGE_LOOP( '', ( #222 ) );
#161 = AXIS2_PLACEMENT_3D( '', #223, #224, #225 );
#162 = EDGE_LOOP( '', ( #226 ) );
#163 = EDGE_LOOP( '', ( #227 ) );
#164 = AXIS2_PLACEMENT_3D( '', #228, #229, #230 );
#165 = EDGE_LOOP( '', ( #231 ) );
#166 = EDGE_LOOP( '', ( #232 ) );
#167 = AXIS2_PLACEMENT_3D( '', #233, #234, #235 );
#168 = EDGE_LOOP( '', ( #236 ) );
#169 = EDGE_LOOP( '', ( #237 ) );
#170 = AXIS2_PLACEMENT_3D( '', #238, #239, #240 );
#171 = EDGE_LOOP( '', ( #241 ) );
#172 = EDGE_LOOP( '', ( #242 ) );
#173 = AXIS2_PLACEMENT_3D( '', #243, #244, #245 );
#174 = EDGE_LOOP( '', ( #246 ) );
#175 = EDGE_LOOP( '', ( #247 ) );
#176 = AXIS2_PLACEMENT_3D( '', #248, #249, #250 );
#177 = EDGE_LOOP( '', ( #251 ) );
#178 = EDGE_LOOP( '', ( #252 ) );
#179 = AXIS2_PLACEMENT_3D( '', #253, #254, #255 );
#180 = EDGE_LOOP( '', ( #256 ) );
#181 = EDGE_LOOP( '', ( #257 ) );
#182 = AXIS2_PLACEMENT_3D( '', #258, #259, #260 );
#183 = EDGE_LOOP( '', ( #261 ) );
#184 = EDGE_LOOP( '', ( #262 ) );
#185 = AXIS2_PLACEMENT_3D( '', #263, #264, #265 );
#186 = EDGE_LOOP( '', ( #266 ) );
#187 = EDGE_LOOP( '', ( #267 ) );
#188 = AXIS2_PLACEMENT_3D( '', #268, #269, #270 );
#189 = EDGE_LOOP( '', ( #271 ) );
#190 = EDGE_LOOP( '', ( #272 ) );
#191 = AXIS2_PLACEMENT_3D( '', #273, #274, #275 );
#192 = EDGE_LOOP( '', ( #276 ) );
#193 = EDGE_LOOP( '', ( #277 ) );
#194 = AXIS2_PLACEMENT_3D( '', #278, #279, #280 );
#195 = EDGE_LOOP( '', ( #281 ) );
#196 = EDGE_LOOP( '', ( #282 ) );
#197 = AXIS2_PLACEMENT_3D( '', #283, #284, #285 );
#198 = EDGE_LOOP( '', ( #286 ) );
#199 = EDGE_LOOP( '', ( #287 ) );
#200 = AXIS2_PLACEMENT_3D( '', #288, #289, #290 );
#201 = EDGE_LOOP( '', ( #291 ) );
#202 = EDGE_LOOP( '', ( #292 ) );
#203 = AXIS2_PLACEMENT_3D( '', #293, #294, #295 );
#204 = EDGE_LOOP( '', ( #296 ) );
#205 = EDGE_LOOP( '', ( #297 ) );
#206 = AXIS2_PLACEMENT_3D( '', #298, #299, #300 );
#207 = EDGE_LOOP( '', ( #301 ) );
#208 = EDGE_LOOP( '', ( #302 ) );
#209 = AXIS2_PLACEMENT_3D( '', #303, #304, #305 );
#210 = EDGE_LOOP( '', ( #306 ) );
#211 = EDGE_LOOP( '', ( #307 ) );
#212 = AXIS2_PLACEMENT_3D( '', #308, #309, #310 );
#213 = EDGE_LOOP( '', ( #311 ) );
#214 = EDGE_LOOP( '', ( #312 ) );
#215 = AXIS2_PLACEMENT_3D( '', #313, #314, #315 );
#216 = ORIENTED_EDGE( '', *, *, #316, .F. );
#217 = ORIENTED_EDGE( '', *, *, #317, .T. );
#218 = CARTESIAN_POINT( '', ( 48.0000000000000, 5.27117819658735, 0.000000000000000 ) );
#219 = DIRECTION( '', ( -1.00000000000000, 0.000000000000000, 0.000000000000000 ) );
#220 = DIRECTION( '', ( 0.000000000000000, 0.000000000000000, 1.00000000000000 ) );
#221 = ORIENTED_EDGE( '', *, *, #317, .F. );
#222 = ORIENTED_EDGE( '', *, *, #318, .T. );
#223 = CARTESIAN_POINT( '', ( 45.2800000000000, 0.000000000000000, 0.000000000000000 ) );
#224 = DIRECTION( '', ( -1.00000000000000, 0.000000000000000, -0.000000000000000 ) );
#225 = DIRECTION( '', ( 0.000000000000000, 0.000000000000000, 1.00000000000000 ) );
#226 = ORIENTED_EDGE( '', *, *, #318, .F. );
#227 = ORIENTED_EDGE( '', *, *, #319, .T. );
#228 = CARTESIAN_POINT( '', ( 45.2800000000000, 5.27117819658735, 0.000000000000000 ) );
#229 = DIRECTION( '', ( 1.00000000000000, 0.000000000000000, -0.000000000000000 ) );
#230 = DIRECTION( '', ( -0.000000000000000, 0.000000000000000, -1.00000000000000 ) );
#231 = ORIENTED_EDGE( '', *, *, #319, .F. );
#232 = ORIENTED_EDGE( '', *, *, #320, .T. );
#233 = CARTESIAN_POINT( '', ( 42.5600000000000, 0.000000000000000, 0.000000000000000 ) );
#234 = DIRECTION( '', ( -1.00000000000000, 0.000000000000000, -0.000000000000000 ) );
#235 = DIRECTION( '', ( 0.000000000000000, 0.000000000000000, 1.00000000000000 ) );
#236 = ORIENTED_EDGE( '', *, *, #320, .F. );
#237 = ORIENTED_EDGE( '', *, *, #321, .T. );
#238 = CARTESIAN_POINT( '', ( 42.5600000000000, 5.27117819658734, 0.000000000000000 ) );
#239 = DIRECTION( '', ( 1.00000000000000, 0.000000000000000, -0.000000000000000 ) );
#240 = DIRECTION( '', ( -0.000000000000000, 0.000000000000000, -1.00000000000000 ) );
#241 = ORIENTED_EDGE( '', *, *, #321, .F. );
#242 = ORIENTED_EDGE( '', *, *, #322, .T. );
#243 = CARTESIAN_POINT( '', ( 39.8400000000000, 0.000000000000000, 0.000000000000000 ) );
#244 = DIRECTION( '', ( -1.00000000000000, 0.000000000000000, -0.000000000000000 ) );
#245 = DIRECTION( '', ( 0.000000000000000, 0.000000000000000, 1.00000000000000 ) );
#246 = ORIENTED_EDGE( '', *, *, #322, .F. );
#247 = ORIENTED_EDGE( '', *, *, #323, .T. );
#248 = CARTESIAN_POINT( '', ( 48.0000000000000, 0.000000000000000, 0.000000000000000 ) );
#249 = DIRECTION( '', ( -1.00000000000000, -0.000000000000000, 0.000000000000000 ) );
#250 = DIRECTION( '', ( -0.000000000000000, 0.000000000000000, -1.00000000000000 ) );
#251 = ORIENTED_EDGE( '', *, *, #323, .F. );
#252 = ORIENTED_EDGE( '', *, *, #324, .T. );
#253 = CARTESIAN_POINT( '', ( 29.2800000000000, 0.000000000000000, 0.000000000000000 ) );
#254 = DIRECTION( '', ( -1.00000000000000, 0.000000000000000, -0.000000000000000 ) );
#255 = DIRECTION( '', ( 0.000000000000000, 0.000000000000000, 1.00000000000000 ) );
#256 = ORIENTED_EDGE( '', *, *, #324, .F. );
#257 = ORIENTED_EDGE( '', *, *, #325, .T. );
#258 = CARTESIAN_POINT( '', ( 29.2800000000000, 6.27117819658735, 0.000000000000000 ) );
#259 = DIRECTION( '', ( 1.00000000000000, 0.000000000000000, -0.000000000000000 ) );
#260 = DIRECTION( '', ( -0.000000000000000, 0.000000000000000, -1.00000000000000 ) );
#261 = ORIENTED_EDGE( '', *, *, #325, .F. );
#262 = ORIENTED_EDGE( '', *, *, #326, .T. );
#263 = CARTESIAN_POINT( '', ( 26.5600000000000, 0.000000000000000, 0.000000000000000 ) );
#264 = DIRECTION( '', ( -1.00000000000000, 0.000000000000000, -0.000000000000000 ) );
#265 = DIRECTION( '', ( 0.000000000000000, 0.000000000000000, 1.00000000000000 ) );
#266 = ORIENTED_EDGE( '', *, *, #326, .F. );
#267 = ORIENTED_EDGE( '', *, *, #327, .T. );
#268 = CARTESIAN_POINT( '', ( 26.5600000000000, 6.27117819658735, 0.000000000000000 ) );
#269 = DIRECTION( '', ( 1.00000000000000, 0.000000000000000, -0.000000000000000 ) );
#270 = DIRECTION( '', ( -0.000000000000000, 0.000000000000000, -1.00000000000000 ) );
#271 = ORIENTED_EDGE( '', *, *, #327, .F. );
#272 = ORIENTED_EDGE( '', *, *, #328, .T. );
#273 = CARTESIAN_POINT( '', ( 23.8400000000000, 0.000000000000000, 0.000000000000000 ) );
#274 = DIRECTION( '', ( -1.00000000000000, 0.000000000000000, -0.000000000000000 ) );
#275 = DIRECTION( '', ( 0.000000000000000, 0.000000000000000, 1.00000000000000 ) );
#276 = ORIENTED_EDGE( '', *, *, #328, .F. );
#277 = ORIENTED_EDGE( '', *, *, #329, .T. );
#278 = CARTESIAN_POINT( '', ( 48.0000000000000, 0.000000000000000, 0.000000000000000 ) );
#279 = DIRECTION( '', ( -1.00000000000000, -0.000000000000000, 0.000000000000000 ) );
#280 = DIRECTION( '', ( -0.000000000000000, 0.000000000000000, -1.00000000000000 ) );
#281 = ORIENTED_EDGE( '', *, *, #329, .F. );
#282 = ORIENTED_EDGE( '', *, *, #330, .T. );
#283 = CARTESIAN_POINT( '', ( 12.0000000000000, 6.00000000000000, 0.000000000000000 ) );
#284 = DIRECTION( '', ( 1.00000000000000, 0.000000000000000, -0.000000000000000 ) );
#285 = DIRECTION( '', ( -0.000000000000000, 0.000000000000000, -1.00000000000000 ) );
#286 = ORIENTED_EDGE( '', *, *, #330, .F. );
#287 = ORIENTED_EDGE( '', *, *, #331, .T. );
#288 = CARTESIAN_POINT( '', ( 48.0000000000000, 0.000000000000000, 0.000000000000000 ) );
#289 = DIRECTION( '', ( -1.00000000000000, -0.000000000000000, 0.000000000000000 ) );
#290 = DIRECTION( '', ( -0.000000000000000, 0.000000000000000, -1.00000000000000 ) );
#291 = ORIENTED_EDGE( '', *, *, #332, .T. );
#292 = ORIENTED_EDGE( '', *, *, #331, .F. );
#293 = CARTESIAN_POINT( '', ( 0.449999999999999, 0.000000000000000, 0.000000000000000 ) );
#294 = DIRECTION( '', ( 1.00000000000000, 0.000000000000000, -0.000000000000000 ) );
#295 = DIRECTION( '', ( -0.000000000000000, 0.000000000000000, -1.00000000000000 ) );
#296 = ORIENTED_EDGE( '', *, *, #332, .F. );
#297 = ORIENTED_EDGE( '', *, *, #333, .T. );
#298 = CARTESIAN_POINT( '', ( 0.000000000000000, 0.000000000000000, 0.000000000000000 ) );
#299 = DIRECTION( '', ( 1.00000000000000, 0.000000000000000, -0.000000000000000 ) );
#300 = DIRECTION( '', ( -0.000000000000000, 0.000000000000000, -1.00000000000000 ) );
#301 = ORIENTED_EDGE( '', *, *, #334, .T. );
#302 = ORIENTED_EDGE( '', *, *, #333, .F. );
#303 = CARTESIAN_POINT( '', ( 0.450000000000000, 0.000000000000000, 0.000000000000000 ) );
#304 = DIRECTION( '', ( 1.00000000000000, 0.000000000000000, -0.000000000000000 ) );
#305 = DIRECTION( '', ( -0.000000000000000, 0.000000000000000, -1.00000000000000 ) );
#306 = ORIENTED_EDGE( '', *, *, #335, .T. );
#307 = ORIENTED_EDGE( '', *, *, #334, .F. );
#308 = CARTESIAN_POINT( '', ( 48.0000000000000, 0.000000000000000, 0.000000000000000 ) );
#309 = DIRECTION( '', ( -1.00000000000000, -0.000000000000000, 0.000000000000000 ) );
#310 = DIRECTION( '', ( -0.000000000000000, 0.000000000000000, -1.00000000000000 ) );
#311 = ORIENTED_EDGE( '', *, *, #316, .T. );
#312 = ORIENTED_EDGE( '', *, *, #335, .F. );
#313 = CARTESIAN_POINT( '', ( 47.5500000000000, 0.000000000000000, 0.000000000000000 ) );
#314 = DIRECTION( '', ( 1.00000000000000, 0.000000000000000, -0.000000000000000 ) );
#315 = DIRECTION( '', ( -0.000000000000000, 0.000000000000000, -1.00000000000000 ) );
#316 = EDGE_CURVE( '', #336, #336, #337, .T. );
#317 = EDGE_CURVE( '', #338, #338, #339, .T. );
#318 = EDGE_CURVE( '', #340, #340, #341, .T. );
#319 = EDGE_CURVE( '', #342, #342, #343, .T. );
#320 = EDGE_CURVE( '', #344, #344, #345, .T. );
#321 = EDGE_CURVE( '', #346, #346, #347, .T. );
#322 = EDGE_CURVE( '', #348, #348, #349, .T. );
#323 = EDGE_CURVE( '', #350, #350, #351, .T. );
#324 = EDGE_CURVE( '', #352, #352, #353, .T. );
#325 = EDGE_CURVE( '', #354, #354, #355, .T. );
#326 = EDGE_CURVE( '', #356, #356, #357, .T. );
#327 = EDGE_CURVE( '', #358, #358, #359, .T. );
#328 = EDGE_CURVE( '', #360, #360, #361, .T. );
#329 = EDGE_CURVE( '', #362, #362, #363, .T. );
#330 = EDGE_CURVE( '', #364, #364, #365, .T. );
#331 = EDGE_CURVE( '', #366, #366, #367, .T. );
#332 = EDGE_CURVE( '', #368, #368, #369, .T. );
#333 = EDGE_CURVE( '', #370, #370, #371, .T. );
#334 = EDGE_CURVE( '', #372, #372, #373, .T. );
#335 = EDGE_CURVE( '', #374, #374, #375, .T. );
#336 = VERTEX_POINT( '', #376 );
#337 = CIRCLE( '', #377, 3.45000000670553 );
#338 = VERTEX_POINT( '', #378 );
#339 = CIRCLE( '', #379, 5.27117819658735 );
#340 = VERTEX_POINT( '', #380 );
#341 = CIRCLE( '', #381, 6.00000000000000 );
#342 = VERTEX_POINT( '', #382 );
#343 = CIRCLE( '', #383, 5.27117819658735 );
#344 = VERTEX_POINT( '', #384 );
#345 = CIRCLE( '', #385, 6.00000000000000 );
#346 = VERTEX_POINT( '', #386 );
#347 = CIRCLE( '', #387, 5.27117819658734 );
#348 = VERTEX_POINT( '', #388 );
#349 = CIRCLE( '', #389, 6.00000000000000 );
#350 = VERTEX_POINT( '', #390 );
#351 = CIRCLE( '', #391, 6.00000000000000 );
#352 = VERTEX_POINT( '', #392 );
#353 = CIRCLE( '', #393, 7.00000000000000 );
#354 = VERTEX_POINT( '', #394 );
#355 = CIRCLE( '', #395, 6.27117819658735 );
#356 = VERTEX_POINT( '', #396 );
#357 = CIRCLE( '', #397, 7.00000000000000 );
#358 = VERTEX_POINT( '', #398 );
#359 = CIRCLE( '', #399, 6.27117819658735 );
#360 = VERTEX_POINT( '', #400 );
#361 = CIRCLE( '', #401, 7.00000000000000 );
#362 = VERTEX_POINT( '', #402 );
#363 = CIRCLE( '', #403, 7.00000000000000 );
#364 = VERTEX_POINT( '', #404 );
#365 = CIRCLE( '', #405, 6.00000000000000 );
#366 = VERTEX_POINT( '', #406 );
#367 = CIRCLE( '', #407, 6.00000000000000 );
#368 = VERTEX_POINT( '', #408 );
#369 = CIRCLE( '', #409, 5.55000000000000 );
#370 = VERTEX_POINT( '', #410 );
#371 = CIRCLE( '', #411, 3.45000000000000 );
#372 = VERTEX_POINT( '', #412 );
#373 = CIRCLE( '', #413, 3.00000000000000 );
#374 = VERTEX_POINT( '', #414 );
#375 = CIRCLE( '', #415, 3.00000000000000 );
#376 = CARTESIAN_POINT( '', ( 48.0000000000000, 0.000000000000000, -3.45000000670553 ) );
#377 = AXIS2_PLACEMENT_3D( '', #416, #417, #418 );
#378 = CARTESIAN_POINT( '', ( 48.0000000000000, 0.000000000000000, -5.27117819658735 ) );
#379 = AXIS2_PLACEMENT_3D( '', #419, #420, #421 );
#380 = CARTESIAN_POINT( '', ( 45.2800000000000, 0.000000000000000, -6.00000000000000 ) );
#381 = AXIS2_PLACEMENT_3D( '', #422, #423, #424 );
#382 = CARTESIAN_POINT( '', ( 45.2800000000000, 0.000000000000000, -5.27117819658735 ) );
#383 = AXIS2_PLACEMENT_3D( '', #425, #426, #427 );
#384 = CARTESIAN_POINT( '', ( 42.5600000000000, 0.000000000000000, -6.00000000000000 ) );
#385 = AXIS2_PLACEMENT_3D( '', #428, #429, #430 );
#386 = CARTESIAN_POINT( '', ( 42.5600000000000, 0.000000000000000, -5.27117819658734 ) );
#387 = AXIS2_PLACEMENT_3D( '', #431, #432, #433 );
#388 = CARTESIAN_POINT( '', ( 39.8400000000000, 0.000000000000000, -6.00000000000000 ) );
#389 = AXIS2_PLACEMENT_3D( '', #434, #435, #436 );
#390 = CARTESIAN_POINT( '', ( 32.0000000000000, 0.000000000000000, -6.00000000000000 ) );
#391 = AXIS2_PLACEMENT_3D( '', #437, #438, #439 );
#392 = CARTESIAN_POINT( '', ( 29.2800000000000, 0.000000000000000, -7.00000000000000 ) );
#393 = AXIS2_PLACEMENT_3D( '', #440, #441, #442 );
#394 = CARTESIAN_POINT( '', ( 29.2800000000000, 0.000000000000000, -6.27117819658735 ) );
#395 = AXIS2_PLACEMENT_3D( '', #443, #444, #445 );
#396 = CARTESIAN_POINT( '', ( 26.5600000000000, 0.000000000000000, -7.00000000000000 ) );
#397 = AXIS2_PLACEMENT_3D( '', #446, #447, #448 );
#398 = CARTESIAN_POINT( '', ( 26.5600000000000, 0.000000000000000, -6.27117819658735 ) );
#399 = AXIS2_PLACEMENT_3D( '', #449, #450, #451 );
#400 = CARTESIAN_POINT( '', ( 23.8400000000000, 0.000000000000000, -7.00000000000000 ) );
#401 = AXIS2_PLACEMENT_3D( '', #452, #453, #454 );
#402 = CARTESIAN_POINT( '', ( 12.0000000000000, 0.000000000000000, -7.00000000000000 ) );
#403 = AXIS2_PLACEMENT_3D( '', #455, #456, #457 );
#404 = CARTESIAN_POINT( '', ( 12.0000000000000, 0.000000000000000, -6.00000000000000 ) );
#405 = AXIS2_PLACEMENT_3D( '', #458, #459, #460 );
#406 = CARTESIAN_POINT( '', ( 0.449999999999999, 0.000000000000000, -6.00000000000000 ) );
#407 = AXIS2_PLACEMENT_3D( '', #461, #462, #463 );
#408 = CARTESIAN_POINT( '', ( 0.000000000000000, 0.000000000000000, -5.55000000000000 ) );
#409 = AXIS2_PLACEMENT_3D( '', #464, #465, #466 );
#410 = CARTESIAN_POINT( '', ( 0.000000000000000, 0.000000000000000, -3.45000000000000 ) );
#411 = AXIS2_PLACEMENT_3D( '', #467, #468, #469 );
#412 = CARTESIAN_POINT( '', ( 0.449999999999999, 0.000000000000000, -3.00000000000000 ) );
#413 = AXIS2_PLACEMENT_3D( '', #470, #471, #472 );
#414 = CARTESIAN_POINT( '', ( 47.5500000000000, 0.000000000000000, -3.00000000000000 ) );
#415 = AXIS2_PLACEMENT_3D( '', #473, #474, #475 );
#416 = CARTESIAN_POINT( '', ( 48.0000000000000, 0.000000000000000, 0.000000000000000 ) );
#417 = DIRECTION( '', ( 1.00000000000000, 0.000000000000000, -0.000000000000000 ) );
#418 = DIRECTION( '', ( -0.000000000000000, 0.000000000000000, -1.00000000000000 ) );
#419 = CARTESIAN_POINT( '', ( 48.0000000000000, 0.000000000000000, 0.000000000000000 ) );
#420 = DIRECTION( '', ( 1.00000000000000, 0.000000000000000, -0.000000000000000 ) );
#421 = DIRECTION( '', ( -0.000000000000000, 0.000000000000000, -1.00000000000000 ) );
#422 = CARTESIAN_POINT( '', ( 45.2800000000000, 0.000000000000000, 0.000000000000000 ) );
#423 = DIRECTION( '', ( 1.00000000000000, 0.000000000000000, -0.000000000000000 ) );
#424 = DIRECTION( '', ( -0.000000000000000, 0.000000000000000, -1.00000000000000 ) );
#425 = CARTESIAN_POINT( '', ( 45.2800000000000, 0.000000000000000, 0.000000000000000 ) );
#426 = DIRECTION( '', ( 1.00000000000000, 0.000000000000000, -0.000000000000000 ) );
#427 = DIRECTION( '', ( -0.000000000000000, 0.000000000000000, -1.00000000000000 ) );
#428 = CARTESIAN_POINT( '', ( 42.5600000000000, 0.000000000000000, 0.000000000000000 ) );
#429 = DIRECTION( '', ( 1.00000000000000, 0.000000000000000, -0.000000000000000 ) );
#430 = DIRECTION( '', ( -0.000000000000000, 0.000000000000000, -1.00000000000000 ) );
#431 = CARTESIAN_POINT( '', ( 42.5600000000000, 0.000000000000000, 0.000000000000000 ) );
#432 = DIRECTION( '', ( 1.00000000000000, 0.000000000000000, -0.000000000000000 ) );
#433 = DIRECTION( '', ( -0.000000000000000, 0.000000000000000, -1.00000000000000 ) );
#434 = CARTESIAN_POINT( '', ( 39.8400000000000, 0.000000000000000, 0.000000000000000 ) );
#435 = DIRECTION( '', ( 1.00000000000000, 0.000000000000000, -0.000000000000000 ) );
#436 = DIRECTION( '', ( -0.000000000000000, 0.000000000000000, -1.00000000000000 ) );
#437 = CARTESIAN_POINT( '', ( 32.0000000000000, 0.000000000000000, 0.000000000000000 ) );
#438 = DIRECTION( '', ( 1.00000000000000, 0.000000000000000, -0.000000000000000 ) );
#439 = DIRECTION( '', ( -0.000000000000000, 0.000000000000000, -1.00000000000000 ) );
#440 = CARTESIAN_POINT( '', ( 29.2800000000000, 0.000000000000000, 0.000000000000000 ) );
#441 = DIRECTION( '', ( 1.00000000000000, 0.000000000000000, -0.000000000000000 ) );
#442 = DIRECTION( '', ( -0.000000000000000, 0.000000000000000, -1.00000000000000 ) );
#443 = CARTESIAN_POINT( '', ( 29.2800000000000, 0.000000000000000, 0.000000000000000 ) );
#444 = DIRECTION( '', ( 1.00000000000000, 0.000000000000000, -0.000000000000000 ) );
#445 = DIRECTION( '', ( -0.000000000000000, 0.000000000000000, -1.00000000000000 ) );
#446 = CARTESIAN_POINT( '', ( 26.5600000000000, 0.000000000000000, 0.000000000000000 ) );
#447 = DIRECTION( '', ( 1.00000000000000, 0.000000000000000, -0.000000000000000 ) );
#448 = DIRECTION( '', ( -0.000000000000000, 0.000000000000000, -1.00000000000000 ) );
#449 = CARTESIAN_POINT( '', ( 26.5600000000000, 0.000000000000000, 0.000000000000000 ) );
#450 = DIRECTION( '', ( 1.00000000000000, 0.000000000000000, -0.000000000000000 ) );
#451 = DIRECTION( '', ( -0.000000000000000, 0.000000000000000, -1.00000000000000 ) );
#452 = CARTESIAN_POINT( '', ( 23.8400000000000, 0.000000000000000, 0.000000000000000 ) );
#453 = DIRECTION( '', ( 1.00000000000000, 0.000000000000000, -0.000000000000000 ) );
#454 = DIRECTION( '', ( -0.000000000000000, 0.000000000000000, -1.00000000000000 ) );
#455 = CARTESIAN_POINT( '', ( 12.0000000000000, 0.000000000000000, 0.000000000000000 ) );
#456 = DIRECTION( '', ( 1.00000000000000, 0.000000000000000, -0.000000000000000 ) );
#457 = DIRECTION( '', ( -0.000000000000000, 0.000000000000000, -1.00000000000000 ) );
#458 = CARTESIAN_POINT( '', ( 12.0000000000000, 0.000000000000000, 0.000000000000000 ) );
#459 = DIRECTION( '', ( 1.00000000000000, 0.000000000000000, -0.000000000000000 ) );
#460 = DIRECTION( '', ( -0.000000000000000, 0.000000000000000, -1.00000000000000 ) );
#461 = CARTESIAN_POINT( '', ( 0.449999999999999, 0.000000000000000, 0.000000000000000 ) );
#462 = DIRECTION( '', ( 1.00000000000000, 0.000000000000000, -0.000000000000000 ) );
#463 = DIRECTION( '', ( -0.000000000000000, 0.000000000000000, -1.00000000000000 ) );
#464 = CARTESIAN_POINT( '', ( 0.000000000000000, 0.000000000000000, 0.000000000000000 ) );
#465 = DIRECTION( '', ( 1.00000000000000, 0.000000000000000, -0.000000000000000 ) );
#466 = DIRECTION( '', ( -0.000000000000000, 0.000000000000000, -1.00000000000000 ) );
#467 = CARTESIAN_POINT( '', ( 0.000000000000000, 0.000000000000000, 0.000000000000000 ) );
#468 = DIRECTION( '', ( 1.00000000000000, 0.000000000000000, -0.000000000000000 ) );
#469 = DIRECTION( '', ( -0.000000000000000, 0.000000000000000, -1.00000000000000 ) );
#470 = CARTESIAN_POINT( '', ( 0.449999999999999, 0.000000000000000, 0.000000000000000 ) );
#471 = DIRECTION( '', ( 1.00000000000000, 0.000000000000000, -0.000000000000000 ) );
#472 = DIRECTION( '', ( -0.000000000000000, 0.000000000000000, -1.00000000000000 ) );
#473 = CARTESIAN_POINT( '', ( 47.5500000000000, 0.000000000000000, 0.000000000000000 ) );
#474 = DIRECTION( '', ( 1.00000000000000, 0.000000000000000, -0.000000000000000 ) );
#475 = DIRECTION( '', ( -0.000000000000000, 0.000000000000000, -1.00000000000000 ) );
ENDSEC;
END-ISO-10303-21;
