ISO-10303-21;
HEADER;
/* Generated by software containing ST-Developer
 * from STEP Tools, Inc. (www.steptools.com) 
 */
/* OPTION: using custom schema-name function */

FILE_DESCRIPTION(
/* description */ (''),
/* implementation_level */ '2;1');

FILE_NAME(
/* name */ '25X12\X2\63D253E38F6F63A5\X0\.stp',
/* time_stamp */ '2024-01-02T15:40:52+08:00',
/* author */ (''),
/* organization */ (''),
/* preprocessor_version */ 'ST-DEVELOPER v16',
/* originating_system */ 'SIEMENS PLM Software NX 10.0',
/* authorisation */ '');

FILE_SCHEMA (('AUTOMOTIVE_DESIGN { 1 0 10303 214 3 1 1 1 }'));
ENDSEC;

DATA;
#10=PROPERTY_DEFINITION_REPRESENTATION(#14,#12);
#11=PROPERTY_DEFINITION_REPRESENTATION(#15,#13);
#12=REPRESENTATION('',(#16),#507);
#13=REPRESENTATION('',(#17),#507);
#14=PROPERTY_DEFINITION('pmi validation property','',#21);
#15=PROPERTY_DEFINITION('pmi validation property','',#21);
#16=VALUE_REPRESENTATION_ITEM('number of annotations',COUNT_MEASURE(0.));
#17=VALUE_REPRESENTATION_ITEM('number of views',COUNT_MEASURE(0.));
#18=SHAPE_REPRESENTATION_RELATIONSHIP('None',
'relationship between gelv07E456E3lxje-None and gelv07E456E3lxje-None',
#30,#19);
#19=ADVANCED_BREP_SHAPE_REPRESENTATION('gelv07E456E3lxje-None',(#40),#507);
#20=SHAPE_DEFINITION_REPRESENTATION(#21,#30);
#21=PRODUCT_DEFINITION_SHAPE('','',#22);
#22=PRODUCT_DEFINITION(' ','',#24,#23);
#23=PRODUCT_DEFINITION_CONTEXT('part definition',#29,'design');
#24=PRODUCT_DEFINITION_FORMATION_WITH_SPECIFIED_SOURCE(' ',' ',#26,
 .NOT_KNOWN.);
#25=PRODUCT_RELATED_PRODUCT_CATEGORY('part','',(#26));
#26=PRODUCT('gelv07E456E3lxje','gelv07E456E3lxje',' ',(#27));
#27=PRODUCT_CONTEXT(' ',#29,'mechanical');
#28=APPLICATION_PROTOCOL_DEFINITION('international standard',
'automotive_design',2010,#29);
#29=APPLICATION_CONTEXT(
'core data for automotive mechanical design processes');
#30=SHAPE_REPRESENTATION('gelv07E456E3lxje-None',(#295),#507);
#31=PRESENTATION_LAYER_ASSIGNMENT('1','Layer 1',(#40));
#32=STYLED_ITEM('',(#33),#40);
#33=PRESENTATION_STYLE_ASSIGNMENT((#34));
#34=SURFACE_STYLE_USAGE(.BOTH.,#35);
#35=SURFACE_SIDE_STYLE('',(#36));
#36=SURFACE_STYLE_FILL_AREA(#37);
#37=FILL_AREA_STYLE('',(#38));
#38=FILL_AREA_STYLE_COLOUR('',#39);
#39=COLOUR_RGB('Orange',1.,0.6,0.);
#40=MANIFOLD_SOLID_BREP('',#41);
#41=CLOSED_SHELL('',(#61,#62,#63,#64,#65,#66,#67,#68,#69,#70,#71,#72,#73,
#74,#75,#76,#77,#78,#79,#80,#81,#82,#83));
#42=TOROIDAL_SURFACE('',#306,7.55,1.);
#43=TOROIDAL_SURFACE('',#337,15.1,0.5);
#44=TOROIDAL_SURFACE('',#338,15.1,0.5);
#45=TOROIDAL_SURFACE('',#339,12.1,0.5);
#46=TOROIDAL_SURFACE('',#340,10.05,0.5);
#47=TOROIDAL_SURFACE('',#341,5.,1.);
#48=CYLINDRICAL_SURFACE('',#304,6.55);
#49=CYLINDRICAL_SURFACE('',#318,4.);
#50=CYLINDRICAL_SURFACE('',#326,15.6);
#51=CYLINDRICAL_SURFACE('',#331,12.6);
#52=CYLINDRICAL_SURFACE('',#336,9.55);
#53=PLANE('',#300);
#54=PLANE('',#308);
#55=PLANE('',#312);
#56=PLANE('',#316);
#57=PLANE('',#320);
#58=PLANE('',#323);
#59=PLANE('',#329);
#60=PLANE('',#334);
#61=ADVANCED_FACE('',(#88,#89),#84,.T.);
#62=ADVANCED_FACE('',(#90,#91),#53,.T.);
#63=ADVANCED_FACE('',(#92,#93),#85,.T.);
#64=ADVANCED_FACE('',(#94,#95),#48,.T.);
#65=ADVANCED_FACE('',(#96,#97),#42,.F.);
#66=ADVANCED_FACE('',(#98,#99),#54,.T.);
#67=ADVANCED_FACE('',(#100,#101),#86,.T.);
#68=ADVANCED_FACE('',(#102,#103),#55,.T.);
#69=ADVANCED_FACE('',(#104,#105),#87,.T.);
#70=ADVANCED_FACE('',(#106,#107),#56,.T.);
#71=ADVANCED_FACE('',(#108,#109),#49,.F.);
#72=ADVANCED_FACE('',(#110,#111),#57,.T.);
#73=ADVANCED_FACE('',(#112,#113),#58,.T.);
#74=ADVANCED_FACE('',(#114,#115),#50,.T.);
#75=ADVANCED_FACE('',(#116,#117),#59,.T.);
#76=ADVANCED_FACE('',(#118,#119),#51,.T.);
#77=ADVANCED_FACE('',(#120,#121),#60,.F.);
#78=ADVANCED_FACE('',(#122,#123),#52,.F.);
#79=ADVANCED_FACE('',(#124,#125),#43,.T.);
#80=ADVANCED_FACE('',(#126,#127),#44,.T.);
#81=ADVANCED_FACE('',(#128,#129),#45,.T.);
#82=ADVANCED_FACE('',(#130,#131),#46,.T.);
#83=ADVANCED_FACE('',(#132,#133),#47,.T.);
#84=CONICAL_SURFACE('',#298,6.54999999999997,5.71059313749882);
#85=CONICAL_SURFACE('',#302,6.54999999999999,5.71059313749902);
#86=CONICAL_SURFACE('',#310,6.55,5.71059313749941);
#87=CONICAL_SURFACE('',#314,6.55,5.07960786001454);
#88=FACE_BOUND('',#134,.T.);
#89=FACE_BOUND('',#135,.T.);
#90=FACE_BOUND('',#136,.T.);
#91=FACE_BOUND('',#137,.T.);
#92=FACE_BOUND('',#138,.T.);
#93=FACE_BOUND('',#139,.T.);
#94=FACE_BOUND('',#140,.T.);
#95=FACE_BOUND('',#141,.T.);
#96=FACE_BOUND('',#142,.T.);
#97=FACE_BOUND('',#143,.T.);
#98=FACE_BOUND('',#144,.T.);
#99=FACE_BOUND('',#145,.T.);
#100=FACE_BOUND('',#146,.T.);
#101=FACE_BOUND('',#147,.T.);
#102=FACE_BOUND('',#148,.T.);
#103=FACE_BOUND('',#149,.T.);
#104=FACE_BOUND('',#150,.T.);
#105=FACE_BOUND('',#151,.T.);
#106=FACE_BOUND('',#152,.T.);
#107=FACE_BOUND('',#153,.T.);
#108=FACE_BOUND('',#154,.T.);
#109=FACE_BOUND('',#155,.T.);
#110=FACE_BOUND('',#156,.T.);
#111=FACE_BOUND('',#157,.T.);
#112=FACE_BOUND('',#158,.T.);
#113=FACE_BOUND('',#159,.T.);
#114=FACE_BOUND('',#160,.T.);
#115=FACE_BOUND('',#161,.T.);
#116=FACE_BOUND('',#162,.T.);
#117=FACE_BOUND('',#163,.T.);
#118=FACE_BOUND('',#164,.T.);
#119=FACE_BOUND('',#165,.T.);
#120=FACE_BOUND('',#166,.T.);
#121=FACE_BOUND('',#167,.T.);
#122=FACE_BOUND('',#168,.T.);
#123=FACE_BOUND('',#169,.T.);
#124=FACE_BOUND('',#170,.T.);
#125=FACE_BOUND('',#171,.T.);
#126=FACE_BOUND('',#172,.T.);
#127=FACE_BOUND('',#173,.T.);
#128=FACE_BOUND('',#174,.T.);
#129=FACE_BOUND('',#175,.T.);
#130=FACE_BOUND('',#176,.T.);
#131=FACE_BOUND('',#177,.T.);
#132=FACE_BOUND('',#178,.T.);
#133=FACE_BOUND('',#179,.T.);
#134=EDGE_LOOP('',(#180));
#135=EDGE_LOOP('',(#181));
#136=EDGE_LOOP('',(#182));
#137=EDGE_LOOP('',(#183));
#138=EDGE_LOOP('',(#184));
#139=EDGE_LOOP('',(#185));
#140=EDGE_LOOP('',(#186));
#141=EDGE_LOOP('',(#187));
#142=EDGE_LOOP('',(#188));
#143=EDGE_LOOP('',(#189));
#144=EDGE_LOOP('',(#190));
#145=EDGE_LOOP('',(#191));
#146=EDGE_LOOP('',(#192));
#147=EDGE_LOOP('',(#193));
#148=EDGE_LOOP('',(#194));
#149=EDGE_LOOP('',(#195));
#150=EDGE_LOOP('',(#196));
#151=EDGE_LOOP('',(#197));
#152=EDGE_LOOP('',(#198));
#153=EDGE_LOOP('',(#199));
#154=EDGE_LOOP('',(#200));
#155=EDGE_LOOP('',(#201));
#156=EDGE_LOOP('',(#202));
#157=EDGE_LOOP('',(#203));
#158=EDGE_LOOP('',(#204));
#159=EDGE_LOOP('',(#205));
#160=EDGE_LOOP('',(#206));
#161=EDGE_LOOP('',(#207));
#162=EDGE_LOOP('',(#208));
#163=EDGE_LOOP('',(#209));
#164=EDGE_LOOP('',(#210));
#165=EDGE_LOOP('',(#211));
#166=EDGE_LOOP('',(#212));
#167=EDGE_LOOP('',(#213));
#168=EDGE_LOOP('',(#214));
#169=EDGE_LOOP('',(#215));
#170=EDGE_LOOP('',(#216));
#171=EDGE_LOOP('',(#217));
#172=EDGE_LOOP('',(#218));
#173=EDGE_LOOP('',(#219));
#174=EDGE_LOOP('',(#220));
#175=EDGE_LOOP('',(#221));
#176=EDGE_LOOP('',(#222));
#177=EDGE_LOOP('',(#223));
#178=EDGE_LOOP('',(#224));
#179=EDGE_LOOP('',(#225));
#180=ORIENTED_EDGE('',*,*,#249,.F.);
#181=ORIENTED_EDGE('',*,*,#250,.T.);
#182=ORIENTED_EDGE('',*,*,#250,.F.);
#183=ORIENTED_EDGE('',*,*,#251,.T.);
#184=ORIENTED_EDGE('',*,*,#251,.F.);
#185=ORIENTED_EDGE('',*,*,#252,.F.);
#186=ORIENTED_EDGE('',*,*,#253,.T.);
#187=ORIENTED_EDGE('',*,*,#252,.T.);
#188=ORIENTED_EDGE('',*,*,#254,.F.);
#189=ORIENTED_EDGE('',*,*,#253,.F.);
#190=ORIENTED_EDGE('',*,*,#255,.F.);
#191=ORIENTED_EDGE('',*,*,#249,.T.);
#192=ORIENTED_EDGE('',*,*,#256,.F.);
#193=ORIENTED_EDGE('',*,*,#255,.T.);
#194=ORIENTED_EDGE('',*,*,#257,.F.);
#195=ORIENTED_EDGE('',*,*,#256,.T.);
#196=ORIENTED_EDGE('',*,*,#258,.T.);
#197=ORIENTED_EDGE('',*,*,#257,.T.);
#198=ORIENTED_EDGE('',*,*,#259,.T.);
#199=ORIENTED_EDGE('',*,*,#258,.F.);
#200=ORIENTED_EDGE('',*,*,#260,.T.);
#201=ORIENTED_EDGE('',*,*,#259,.F.);
#202=ORIENTED_EDGE('',*,*,#254,.T.);
#203=ORIENTED_EDGE('',*,*,#261,.T.);
#204=ORIENTED_EDGE('',*,*,#262,.T.);
#205=ORIENTED_EDGE('',*,*,#263,.F.);
#206=ORIENTED_EDGE('',*,*,#264,.T.);
#207=ORIENTED_EDGE('',*,*,#265,.T.);
#208=ORIENTED_EDGE('',*,*,#266,.T.);
#209=ORIENTED_EDGE('',*,*,#267,.T.);
#210=ORIENTED_EDGE('',*,*,#268,.T.);
#211=ORIENTED_EDGE('',*,*,#263,.T.);
#212=ORIENTED_EDGE('',*,*,#269,.T.);
#213=ORIENTED_EDGE('',*,*,#270,.F.);
#214=ORIENTED_EDGE('',*,*,#271,.T.);
#215=ORIENTED_EDGE('',*,*,#270,.T.);
#216=ORIENTED_EDGE('',*,*,#262,.F.);
#217=ORIENTED_EDGE('',*,*,#264,.F.);
#218=ORIENTED_EDGE('',*,*,#261,.F.);
#219=ORIENTED_EDGE('',*,*,#265,.F.);
#220=ORIENTED_EDGE('',*,*,#266,.F.);
#221=ORIENTED_EDGE('',*,*,#268,.F.);
#222=ORIENTED_EDGE('',*,*,#271,.F.);
#223=ORIENTED_EDGE('',*,*,#267,.F.);
#224=ORIENTED_EDGE('',*,*,#269,.F.);
#225=ORIENTED_EDGE('',*,*,#260,.F.);
#226=VERTEX_POINT('',#438);
#227=VERTEX_POINT('',#440);
#228=VERTEX_POINT('',#443);
#229=VERTEX_POINT('',#446);
#230=VERTEX_POINT('',#449);
#231=VERTEX_POINT('',#452);
#232=VERTEX_POINT('',#455);
#233=VERTEX_POINT('',#458);
#234=VERTEX_POINT('',#461);
#235=VERTEX_POINT('',#464);
#236=VERTEX_POINT('',#467);
#237=VERTEX_POINT('',#470);
#238=VERTEX_POINT('',#473);
#239=VERTEX_POINT('',#476);
#240=VERTEX_POINT('',#478);
#241=VERTEX_POINT('',#481);
#242=VERTEX_POINT('',#483);
#243=VERTEX_POINT('',#486);
#244=VERTEX_POINT('',#488);
#245=VERTEX_POINT('',#491);
#246=VERTEX_POINT('',#494);
#247=VERTEX_POINT('',#496);
#248=VERTEX_POINT('',#499);
#249=EDGE_CURVE('',#226,#226,#272,.T.);
#250=EDGE_CURVE('',#227,#227,#273,.T.);
#251=EDGE_CURVE('',#228,#228,#274,.T.);
#252=EDGE_CURVE('',#229,#229,#275,.T.);
#253=EDGE_CURVE('',#230,#230,#276,.T.);
#254=EDGE_CURVE('',#231,#231,#277,.T.);
#255=EDGE_CURVE('',#232,#232,#278,.T.);
#256=EDGE_CURVE('',#233,#233,#279,.T.);
#257=EDGE_CURVE('',#234,#234,#280,.T.);
#258=EDGE_CURVE('',#235,#235,#281,.T.);
#259=EDGE_CURVE('',#236,#236,#282,.T.);
#260=EDGE_CURVE('',#237,#237,#283,.T.);
#261=EDGE_CURVE('',#238,#238,#284,.T.);
#262=EDGE_CURVE('',#239,#239,#285,.T.);
#263=EDGE_CURVE('',#240,#240,#286,.T.);
#264=EDGE_CURVE('',#241,#241,#287,.T.);
#265=EDGE_CURVE('',#242,#242,#288,.T.);
#266=EDGE_CURVE('',#243,#243,#289,.T.);
#267=EDGE_CURVE('',#244,#244,#290,.T.);
#268=EDGE_CURVE('',#245,#245,#291,.T.);
#269=EDGE_CURVE('',#246,#246,#292,.T.);
#270=EDGE_CURVE('',#247,#247,#293,.T.);
#271=EDGE_CURVE('',#248,#248,#294,.T.);
#272=CIRCLE('',#296,6.15000000000003);
#273=CIRCLE('',#297,6.54999999999997);
#274=CIRCLE('',#299,6.15000000000003);
#275=CIRCLE('',#301,6.54999999999999);
#276=CIRCLE('',#303,6.55);
#277=CIRCLE('',#305,7.55);
#278=CIRCLE('',#307,6.55);
#279=CIRCLE('',#309,6.15000000000002);
#280=CIRCLE('',#311,6.55);
#281=CIRCLE('',#313,6.15);
#282=CIRCLE('',#315,4.);
#283=CIRCLE('',#317,4.);
#284=CIRCLE('',#319,15.1);
#285=CIRCLE('',#321,15.1);
#286=CIRCLE('',#322,12.6);
#287=CIRCLE('',#324,15.6);
#288=CIRCLE('',#325,15.6);
#289=CIRCLE('',#327,12.1);
#290=CIRCLE('',#328,10.05);
#291=CIRCLE('',#330,12.6);
#292=CIRCLE('',#332,5.);
#293=CIRCLE('',#333,9.55);
#294=CIRCLE('',#335,9.55);
#295=AXIS2_PLACEMENT_3D('',#436,#342,#343);
#296=AXIS2_PLACEMENT_3D('',#437,#344,#345);
#297=AXIS2_PLACEMENT_3D('',#439,#346,#347);
#298=AXIS2_PLACEMENT_3D('',#441,#348,#349);
#299=AXIS2_PLACEMENT_3D('',#442,#350,#351);
#300=AXIS2_PLACEMENT_3D('',#444,#352,#353);
#301=AXIS2_PLACEMENT_3D('',#445,#354,#355);
#302=AXIS2_PLACEMENT_3D('',#447,#356,#357);
#303=AXIS2_PLACEMENT_3D('',#448,#358,#359);
#304=AXIS2_PLACEMENT_3D('',#450,#360,#361);
#305=AXIS2_PLACEMENT_3D('',#451,#362,#363);
#306=AXIS2_PLACEMENT_3D('',#453,#364,#365);
#307=AXIS2_PLACEMENT_3D('',#454,#366,#367);
#308=AXIS2_PLACEMENT_3D('',#456,#368,#369);
#309=AXIS2_PLACEMENT_3D('',#457,#370,#371);
#310=AXIS2_PLACEMENT_3D('',#459,#372,#373);
#311=AXIS2_PLACEMENT_3D('',#460,#374,#375);
#312=AXIS2_PLACEMENT_3D('',#462,#376,#377);
#313=AXIS2_PLACEMENT_3D('',#463,#378,#379);
#314=AXIS2_PLACEMENT_3D('',#465,#380,#381);
#315=AXIS2_PLACEMENT_3D('',#466,#382,#383);
#316=AXIS2_PLACEMENT_3D('',#468,#384,#385);
#317=AXIS2_PLACEMENT_3D('',#469,#386,#387);
#318=AXIS2_PLACEMENT_3D('',#471,#388,#389);
#319=AXIS2_PLACEMENT_3D('',#472,#390,#391);
#320=AXIS2_PLACEMENT_3D('',#474,#392,#393);
#321=AXIS2_PLACEMENT_3D('',#475,#394,#395);
#322=AXIS2_PLACEMENT_3D('',#477,#396,#397);
#323=AXIS2_PLACEMENT_3D('',#479,#398,#399);
#324=AXIS2_PLACEMENT_3D('',#480,#400,#401);
#325=AXIS2_PLACEMENT_3D('',#482,#402,#403);
#326=AXIS2_PLACEMENT_3D('',#484,#404,#405);
#327=AXIS2_PLACEMENT_3D('',#485,#406,#407);
#328=AXIS2_PLACEMENT_3D('',#487,#408,#409);
#329=AXIS2_PLACEMENT_3D('',#489,#410,#411);
#330=AXIS2_PLACEMENT_3D('',#490,#412,#413);
#331=AXIS2_PLACEMENT_3D('',#492,#414,#415);
#332=AXIS2_PLACEMENT_3D('',#493,#416,#417);
#333=AXIS2_PLACEMENT_3D('',#495,#418,#419);
#334=AXIS2_PLACEMENT_3D('',#497,#420,#421);
#335=AXIS2_PLACEMENT_3D('',#498,#422,#423);
#336=AXIS2_PLACEMENT_3D('',#500,#424,#425);
#337=AXIS2_PLACEMENT_3D('',#501,#426,#427);
#338=AXIS2_PLACEMENT_3D('',#502,#428,#429);
#339=AXIS2_PLACEMENT_3D('',#503,#430,#431);
#340=AXIS2_PLACEMENT_3D('',#504,#432,#433);
#341=AXIS2_PLACEMENT_3D('',#505,#434,#435);
#342=DIRECTION('',(0.,0.,1.));
#343=DIRECTION('',(1.,0.,0.));
#344=DIRECTION('',(0.,0.,1.));
#345=DIRECTION('',(-1.,0.,0.));
#346=DIRECTION('',(0.,0.,1.));
#347=DIRECTION('',(-1.,0.,0.));
#348=DIRECTION('',(0.,0.,-1.));
#349=DIRECTION('',(-1.,0.,8.14041987788383E-17));
#350=DIRECTION('',(0.,0.,1.));
#351=DIRECTION('',(-1.,0.,0.));
#352=DIRECTION('',(0.,0.,-1.));
#353=DIRECTION('',(-1.,0.,0.));
#354=DIRECTION('',(0.,0.,-1.));
#355=DIRECTION('',(-1.,0.,0.));
#356=DIRECTION('',(0.,0.,-1.));
#357=DIRECTION('',(-1.,0.,3.25616795115342E-17));
#358=DIRECTION('',(0.,0.,1.));
#359=DIRECTION('',(1.,0.,0.));
#360=DIRECTION('',(0.,0.,1.));
#361=DIRECTION('',(1.,0.,0.));
#362=DIRECTION('',(0.,0.,-1.));
#363=DIRECTION('',(1.,0.,0.));
#364=DIRECTION('',(0.,0.,1.));
#365=DIRECTION('',(1.,0.,0.));
#366=DIRECTION('',(0.,0.,1.));
#367=DIRECTION('',(-1.,0.,0.));
#368=DIRECTION('',(0.,0.,-1.));
#369=DIRECTION('',(-1.,0.,0.));
#370=DIRECTION('',(0.,0.,1.));
#371=DIRECTION('',(-1.,0.,0.));
#372=DIRECTION('',(0.,0.,-1.));
#373=DIRECTION('',(-1.,0.,9.76850385345964E-17));
#374=DIRECTION('',(0.,0.,1.));
#375=DIRECTION('',(-1.,0.,0.));
#376=DIRECTION('',(0.,0.,-1.));
#377=DIRECTION('',(-1.,0.,0.));
#378=DIRECTION('',(0.,0.,-1.));
#379=DIRECTION('',(-0.999999999999998,0.,0.));
#380=DIRECTION('',(0.,0.,-1.));
#381=DIRECTION('',(-1.,0.,1.45410198812889E-16));
#382=DIRECTION('',(0.,0.,-1.));
#383=DIRECTION('',(-1.,0.,0.));
#384=DIRECTION('',(0.,0.,1.));
#385=DIRECTION('',(1.,0.,0.));
#386=DIRECTION('',(0.,0.,-1.));
#387=DIRECTION('',(1.,0.,0.));
#388=DIRECTION('',(0.,0.,-1.));
#389=DIRECTION('',(-1.,0.,0.));
#390=DIRECTION('',(0.,0.,1.));
#391=DIRECTION('',(1.,0.,0.));
#392=DIRECTION('',(0.,0.,1.));
#393=DIRECTION('',(1.,0.,0.));
#394=DIRECTION('',(0.,0.,-1.));
#395=DIRECTION('',(-1.,0.,0.));
#396=DIRECTION('',(0.,0.,-1.));
#397=DIRECTION('',(1.,0.,0.));
#398=DIRECTION('',(0.,0.,-1.));
#399=DIRECTION('',(-1.,0.,0.));
#400=DIRECTION('',(0.,0.,1.));
#401=DIRECTION('',(-1.,0.,0.));
#402=DIRECTION('',(0.,0.,-1.));
#403=DIRECTION('',(1.,0.,0.));
#404=DIRECTION('',(0.,0.,1.));
#405=DIRECTION('',(1.,0.,0.));
#406=DIRECTION('',(0.,0.,-1.));
#407=DIRECTION('',(-1.,0.,0.));
#408=DIRECTION('',(0.,0.,1.));
#409=DIRECTION('',(-1.,0.,0.));
#410=DIRECTION('',(0.,0.,-1.));
#411=DIRECTION('',(-1.,0.,0.));
#412=DIRECTION('',(0.,0.,1.));
#413=DIRECTION('',(-1.,0.,0.));
#414=DIRECTION('',(0.,0.,-1.));
#415=DIRECTION('',(1.,0.,0.));
#416=DIRECTION('',(0.,0.,1.));
#417=DIRECTION('',(1.,0.,0.));
#418=DIRECTION('',(0.,0.,1.));
#419=DIRECTION('',(1.,0.,0.));
#420=DIRECTION('',(0.,0.,1.));
#421=DIRECTION('',(1.,0.,0.));
#422=DIRECTION('',(0.,0.,-1.));
#423=DIRECTION('',(-1.,0.,0.));
#424=DIRECTION('',(0.,0.,1.));
#425=DIRECTION('',(1.,0.,0.));
#426=DIRECTION('',(0.,0.,-1.));
#427=DIRECTION('',(-1.,0.,0.));
#428=DIRECTION('',(0.,0.,1.));
#429=DIRECTION('',(1.,0.,0.));
#430=DIRECTION('',(0.,0.,-1.));
#431=DIRECTION('',(-1.,0.,0.));
#432=DIRECTION('',(0.,0.,-1.));
#433=DIRECTION('',(-1.,0.,0.));
#434=DIRECTION('',(0.,0.,1.));
#435=DIRECTION('',(1.,0.,0.));
#436=CARTESIAN_POINT('',(0.,0.,0.));
#437=CARTESIAN_POINT('',(-121.,0.,17.));
#438=CARTESIAN_POINT('',(-127.15,0.,17.));
#439=CARTESIAN_POINT('',(-121.,0.,13.));
#440=CARTESIAN_POINT('',(-127.55,0.,13.));
#441=CARTESIAN_POINT('',(-121.,0.,13.));
#442=CARTESIAN_POINT('',(-121.,0.,13.));
#443=CARTESIAN_POINT('',(-127.15,0.,13.));
#444=CARTESIAN_POINT('',(-114.85,0.,13.));
#445=CARTESIAN_POINT('',(-121.,0.,9.00000000000001));
#446=CARTESIAN_POINT('',(-127.55,0.,9.00000000000001));
#447=CARTESIAN_POINT('',(-121.,0.,9.00000000000001));
#448=CARTESIAN_POINT('',(-121.,0.,1.3));
#449=CARTESIAN_POINT('',(-114.45,0.,1.3));
#450=CARTESIAN_POINT('',(-121.,0.,0.300000000000001));
#451=CARTESIAN_POINT('',(-121.,0.,0.3));
#452=CARTESIAN_POINT('',(-113.45,0.,0.3));
#453=CARTESIAN_POINT('',(-121.,0.,1.3));
#454=CARTESIAN_POINT('',(-121.,0.,17.));
#455=CARTESIAN_POINT('',(-127.55,0.,17.));
#456=CARTESIAN_POINT('',(-114.85,0.,17.));
#457=CARTESIAN_POINT('',(-121.,0.,21.));
#458=CARTESIAN_POINT('',(-127.15,0.,21.));
#459=CARTESIAN_POINT('',(-121.,0.,17.));
#460=CARTESIAN_POINT('',(-121.,0.,21.));
#461=CARTESIAN_POINT('',(-127.55,0.,21.));
#462=CARTESIAN_POINT('',(-114.85,0.,21.));
#463=CARTESIAN_POINT('',(-121.,0.,25.5));
#464=CARTESIAN_POINT('',(-127.15,0.,25.5));
#465=CARTESIAN_POINT('',(-121.,0.,21.));
#466=CARTESIAN_POINT('',(-121.,0.,25.5));
#467=CARTESIAN_POINT('',(-125.,0.,25.5));
#468=CARTESIAN_POINT('',(-121.,0.,25.5));
#469=CARTESIAN_POINT('',(-121.,0.,-4.2));
#470=CARTESIAN_POINT('',(-117.,0.,-4.2));
#471=CARTESIAN_POINT('',(-121.,0.,25.5));
#472=CARTESIAN_POINT('',(-121.,0.,0.3));
#473=CARTESIAN_POINT('',(-105.9,0.,0.3));
#474=CARTESIAN_POINT('',(-121.,0.,0.3));
#475=CARTESIAN_POINT('',(-121.,0.,-4.7));
#476=CARTESIAN_POINT('',(-136.1,0.,-4.7));
#477=CARTESIAN_POINT('',(-121.,0.,-4.7));
#478=CARTESIAN_POINT('',(-108.4,0.,-4.7));
#479=CARTESIAN_POINT('',(-121.,0.,-4.7));
#480=CARTESIAN_POINT('',(-121.,0.,-4.2));
#481=CARTESIAN_POINT('',(-136.6,0.,-4.2));
#482=CARTESIAN_POINT('',(-121.,0.,-0.2));
#483=CARTESIAN_POINT('',(-105.4,0.,-0.2));
#484=CARTESIAN_POINT('',(-121.,0.,-4.7));
#485=CARTESIAN_POINT('',(-121.,0.,-21.7));
#486=CARTESIAN_POINT('',(-133.1,0.,-21.7));
#487=CARTESIAN_POINT('',(-121.,0.,-21.7));
#488=CARTESIAN_POINT('',(-131.05,0.,-21.7));
#489=CARTESIAN_POINT('',(-121.,0.,-21.7));
#490=CARTESIAN_POINT('',(-121.,0.,-21.2));
#491=CARTESIAN_POINT('',(-133.6,0.,-21.2));
#492=CARTESIAN_POINT('',(-121.,0.,-4.7));
#493=CARTESIAN_POINT('',(-121.,0.,-5.2));
#494=CARTESIAN_POINT('',(-116.,0.,-5.2));
#495=CARTESIAN_POINT('',(-121.,0.,-5.2));
#496=CARTESIAN_POINT('',(-111.45,0.,-5.2));
#497=CARTESIAN_POINT('',(-121.,0.,-5.2));
#498=CARTESIAN_POINT('',(-121.,0.,-21.2));
#499=CARTESIAN_POINT('',(-130.55,0.,-21.2));
#500=CARTESIAN_POINT('',(-121.,0.,-21.7));
#501=CARTESIAN_POINT('',(-121.,0.,-4.2));
#502=CARTESIAN_POINT('',(-121.,0.,-0.2));
#503=CARTESIAN_POINT('',(-121.,0.,-21.2));
#504=CARTESIAN_POINT('',(-121.,0.,-21.2));
#505=CARTESIAN_POINT('',(-121.,0.,-4.2));
#506=MECHANICAL_DESIGN_GEOMETRIC_PRESENTATION_REPRESENTATION('',(#32),#507);
#507=(
GEOMETRIC_REPRESENTATION_CONTEXT(3)
GLOBAL_UNCERTAINTY_ASSIGNED_CONTEXT((#508))
GLOBAL_UNIT_ASSIGNED_CONTEXT((#514,#510,#509))
REPRESENTATION_CONTEXT('25X12\X2\63D253E38F6F63A5\X0\',
'TOP_LEVEL_ASSEMBLY_PART')
);
#508=UNCERTAINTY_MEASURE_WITH_UNIT(LENGTH_MEASURE(2.E-5),#514,
'DISTANCE_ACCURACY_VALUE','Maximum Tolerance applied to model');
#509=(
NAMED_UNIT(*)
SI_UNIT($,.STERADIAN.)
SOLID_ANGLE_UNIT()
);
#510=(
CONVERSION_BASED_UNIT('DEGREE',#512)
NAMED_UNIT(#511)
PLANE_ANGLE_UNIT()
);
#511=DIMENSIONAL_EXPONENTS(0.,0.,0.,0.,0.,0.,0.);
#512=PLANE_ANGLE_MEASURE_WITH_UNIT(PLANE_ANGLE_MEASURE(0.0174532925),#513);
#513=(
NAMED_UNIT(*)
PLANE_ANGLE_UNIT()
SI_UNIT($,.RADIAN.)
);
#514=(
LENGTH_UNIT()
NAMED_UNIT(*)
SI_UNIT(.MILLI.,.METRE.)
);
ENDSEC;
END-ISO-10303-21;
