ISO-10303-21;
HEADER;
/* Generated by software containing ST-Developer
 * from STEP Tools, Inc. (www.steptools.com) 
 */
/* OPTION: using custom schema-name function */

FILE_DESCRIPTION(
/* description */ (''),
/* implementation_level */ '2;1');

FILE_NAME(
/* name */ '32X25\X2\63D253E38F6F63A5\X0\.stp',
/* time_stamp */ '2024-01-02T15:44:49+08:00',
/* author */ (''),
/* organization */ (''),
/* preprocessor_version */ 'ST-DEVELOPER v16',
/* originating_system */ 'SIEMENS PLM Software NX 10.0',
/* authorisation */ '');

FILE_SCHEMA (('AUTOMOTIVE_DESIGN { 1 0 10303 214 3 1 1 1 }'));
ENDSEC;

DATA;
#10=PROPERTY_DEFINITION_REPRESENTATION(#14,#12);
#11=PROPERTY_DEFINITION_REPRESENTATION(#15,#13);
#12=REPRESENTATION('',(#16),#507);
#13=REPRESENTATION('',(#17),#507);
#14=PROPERTY_DEFINITION('pmi validation property','',#21);
#15=PROPERTY_DEFINITION('pmi validation property','',#21);
#16=VALUE_REPRESENTATION_ITEM('number of annotations',COUNT_MEASURE(0.));
#17=VALUE_REPRESENTATION_ITEM('number of views',COUNT_MEASURE(0.));
#18=SHAPE_REPRESENTATION_RELATIONSHIP('None',
'relationship between gelv07E456E3lxke-None and gelv07E456E3lxke-None',
#30,#19);
#19=ADVANCED_BREP_SHAPE_REPRESENTATION('gelv07E456E3lxke-None',(#40),#507);
#20=SHAPE_DEFINITION_REPRESENTATION(#21,#30);
#21=PRODUCT_DEFINITION_SHAPE('','',#22);
#22=PRODUCT_DEFINITION(' ','',#24,#23);
#23=PRODUCT_DEFINITION_CONTEXT('part definition',#29,'design');
#24=PRODUCT_DEFINITION_FORMATION_WITH_SPECIFIED_SOURCE(' ',' ',#26,
 .NOT_KNOWN.);
#25=PRODUCT_RELATED_PRODUCT_CATEGORY('part','',(#26));
#26=PRODUCT('gelv07E456E3lxke','gelv07E456E3lxke',' ',(#27));
#27=PRODUCT_CONTEXT(' ',#29,'mechanical');
#28=APPLICATION_PROTOCOL_DEFINITION('international standard',
'automotive_design',2010,#29);
#29=APPLICATION_CONTEXT(
'core data for automotive mechanical design processes');
#30=SHAPE_REPRESENTATION('gelv07E456E3lxke-None',(#295),#507);
#31=PRESENTATION_LAYER_ASSIGNMENT('1','Layer 1',(#40));
#32=STYLED_ITEM('',(#33),#40);
#33=PRESENTATION_STYLE_ASSIGNMENT((#34));
#34=SURFACE_STYLE_USAGE(.BOTH.,#35);
#35=SURFACE_SIDE_STYLE('',(#36));
#36=SURFACE_STYLE_FILL_AREA(#37);
#37=FILL_AREA_STYLE('',(#38));
#38=FILL_AREA_STYLE_COLOUR('',#39);
#39=COLOUR_RGB('Orange',1.,0.6,0.);
#40=MANIFOLD_SOLID_BREP('',#41);
#41=CLOSED_SHELL('',(#60,#61,#62,#63,#64,#65,#66,#67,#68,#69,#70,#71,#72,
#73,#74,#75,#76,#77,#78,#79,#80,#81,#82));
#42=TOROIDAL_SURFACE('',#336,12.5,0.5);
#43=TOROIDAL_SURFACE('',#337,15.6,0.5);
#44=TOROIDAL_SURFACE('',#338,19.15,0.5);
#45=TOROIDAL_SURFACE('',#339,19.15,0.5);
#46=TOROIDAL_SURFACE('',#340,9.85,1.);
#47=TOROIDAL_SURFACE('',#341,13.45,1.);
#48=CONICAL_SURFACE('',#303,12.45,3.67823872199253);
#49=CONICAL_SURFACE('',#307,12.45,3.67823872199298);
#50=CONICAL_SURFACE('',#311,12.45,3.67823872199344);
#51=CONICAL_SURFACE('',#314,12.45,3.62657178387966);
#52=PLANE('',#301);
#53=PLANE('',#305);
#54=PLANE('',#309);
#55=PLANE('',#313);
#56=PLANE('',#319);
#57=PLANE('',#322);
#58=PLANE('',#325);
#59=PLANE('',#331);
#60=ADVANCED_FACE('',(#88,#89),#83,.T.);
#61=ADVANCED_FACE('',(#90,#91),#52,.T.);
#62=ADVANCED_FACE('',(#92,#93),#48,.T.);
#63=ADVANCED_FACE('',(#94,#95),#53,.T.);
#64=ADVANCED_FACE('',(#96,#97),#49,.T.);
#65=ADVANCED_FACE('',(#98,#99),#54,.T.);
#66=ADVANCED_FACE('',(#100,#101),#50,.T.);
#67=ADVANCED_FACE('',(#102,#103),#55,.T.);
#68=ADVANCED_FACE('',(#104,#105),#51,.T.);
#69=ADVANCED_FACE('',(#106,#107),#84,.F.);
#70=ADVANCED_FACE('',(#108,#109),#56,.T.);
#71=ADVANCED_FACE('',(#110,#111),#57,.T.);
#72=ADVANCED_FACE('',(#112,#113),#58,.T.);
#73=ADVANCED_FACE('',(#114,#115),#85,.T.);
#74=ADVANCED_FACE('',(#116,#117),#59,.T.);
#75=ADVANCED_FACE('',(#118,#119),#86,.T.);
#76=ADVANCED_FACE('',(#120,#121),#87,.F.);
#77=ADVANCED_FACE('',(#122,#123),#42,.T.);
#78=ADVANCED_FACE('',(#124,#125),#43,.T.);
#79=ADVANCED_FACE('',(#126,#127),#44,.T.);
#80=ADVANCED_FACE('',(#128,#129),#45,.T.);
#81=ADVANCED_FACE('',(#130,#131),#46,.T.);
#82=ADVANCED_FACE('',(#132,#133),#47,.F.);
#83=CYLINDRICAL_SURFACE('',#298,12.45);
#84=CYLINDRICAL_SURFACE('',#316,8.85);
#85=CYLINDRICAL_SURFACE('',#328,19.65);
#86=CYLINDRICAL_SURFACE('',#333,16.1);
#87=CYLINDRICAL_SURFACE('',#335,12.);
#88=FACE_BOUND('',#134,.T.);
#89=FACE_BOUND('',#135,.T.);
#90=FACE_BOUND('',#136,.T.);
#91=FACE_BOUND('',#137,.T.);
#92=FACE_BOUND('',#138,.T.);
#93=FACE_BOUND('',#139,.T.);
#94=FACE_BOUND('',#140,.T.);
#95=FACE_BOUND('',#141,.T.);
#96=FACE_BOUND('',#142,.T.);
#97=FACE_BOUND('',#143,.T.);
#98=FACE_BOUND('',#144,.T.);
#99=FACE_BOUND('',#145,.T.);
#100=FACE_BOUND('',#146,.T.);
#101=FACE_BOUND('',#147,.T.);
#102=FACE_BOUND('',#148,.T.);
#103=FACE_BOUND('',#149,.T.);
#104=FACE_BOUND('',#150,.T.);
#105=FACE_BOUND('',#151,.T.);
#106=FACE_BOUND('',#152,.T.);
#107=FACE_BOUND('',#153,.T.);
#108=FACE_BOUND('',#154,.T.);
#109=FACE_BOUND('',#155,.T.);
#110=FACE_BOUND('',#156,.T.);
#111=FACE_BOUND('',#157,.T.);
#112=FACE_BOUND('',#158,.T.);
#113=FACE_BOUND('',#159,.T.);
#114=FACE_BOUND('',#160,.T.);
#115=FACE_BOUND('',#161,.T.);
#116=FACE_BOUND('',#162,.T.);
#117=FACE_BOUND('',#163,.T.);
#118=FACE_BOUND('',#164,.T.);
#119=FACE_BOUND('',#165,.T.);
#120=FACE_BOUND('',#166,.T.);
#121=FACE_BOUND('',#167,.T.);
#122=FACE_BOUND('',#168,.T.);
#123=FACE_BOUND('',#169,.T.);
#124=FACE_BOUND('',#170,.T.);
#125=FACE_BOUND('',#171,.T.);
#126=FACE_BOUND('',#172,.T.);
#127=FACE_BOUND('',#173,.T.);
#128=FACE_BOUND('',#174,.T.);
#129=FACE_BOUND('',#175,.T.);
#130=FACE_BOUND('',#176,.T.);
#131=FACE_BOUND('',#177,.T.);
#132=FACE_BOUND('',#178,.T.);
#133=FACE_BOUND('',#179,.T.);
#134=EDGE_LOOP('',(#180));
#135=EDGE_LOOP('',(#181));
#136=EDGE_LOOP('',(#182));
#137=EDGE_LOOP('',(#183));
#138=EDGE_LOOP('',(#184));
#139=EDGE_LOOP('',(#185));
#140=EDGE_LOOP('',(#186));
#141=EDGE_LOOP('',(#187));
#142=EDGE_LOOP('',(#188));
#143=EDGE_LOOP('',(#189));
#144=EDGE_LOOP('',(#190));
#145=EDGE_LOOP('',(#191));
#146=EDGE_LOOP('',(#192));
#147=EDGE_LOOP('',(#193));
#148=EDGE_LOOP('',(#194));
#149=EDGE_LOOP('',(#195));
#150=EDGE_LOOP('',(#196));
#151=EDGE_LOOP('',(#197));
#152=EDGE_LOOP('',(#198));
#153=EDGE_LOOP('',(#199));
#154=EDGE_LOOP('',(#200));
#155=EDGE_LOOP('',(#201));
#156=EDGE_LOOP('',(#202));
#157=EDGE_LOOP('',(#203));
#158=EDGE_LOOP('',(#204));
#159=EDGE_LOOP('',(#205));
#160=EDGE_LOOP('',(#206));
#161=EDGE_LOOP('',(#207));
#162=EDGE_LOOP('',(#208));
#163=EDGE_LOOP('',(#209));
#164=EDGE_LOOP('',(#210));
#165=EDGE_LOOP('',(#211));
#166=EDGE_LOOP('',(#212));
#167=EDGE_LOOP('',(#213));
#168=EDGE_LOOP('',(#214));
#169=EDGE_LOOP('',(#215));
#170=EDGE_LOOP('',(#216));
#171=EDGE_LOOP('',(#217));
#172=EDGE_LOOP('',(#218));
#173=EDGE_LOOP('',(#219));
#174=EDGE_LOOP('',(#220));
#175=EDGE_LOOP('',(#221));
#176=EDGE_LOOP('',(#222));
#177=EDGE_LOOP('',(#223));
#178=EDGE_LOOP('',(#224));
#179=EDGE_LOOP('',(#225));
#180=ORIENTED_EDGE('',*,*,#249,.T.);
#181=ORIENTED_EDGE('',*,*,#250,.T.);
#182=ORIENTED_EDGE('',*,*,#251,.T.);
#183=ORIENTED_EDGE('',*,*,#252,.F.);
#184=ORIENTED_EDGE('',*,*,#250,.F.);
#185=ORIENTED_EDGE('',*,*,#253,.F.);
#186=ORIENTED_EDGE('',*,*,#253,.T.);
#187=ORIENTED_EDGE('',*,*,#254,.F.);
#188=ORIENTED_EDGE('',*,*,#254,.T.);
#189=ORIENTED_EDGE('',*,*,#255,.F.);
#190=ORIENTED_EDGE('',*,*,#255,.T.);
#191=ORIENTED_EDGE('',*,*,#256,.F.);
#192=ORIENTED_EDGE('',*,*,#256,.T.);
#193=ORIENTED_EDGE('',*,*,#257,.F.);
#194=ORIENTED_EDGE('',*,*,#257,.T.);
#195=ORIENTED_EDGE('',*,*,#258,.F.);
#196=ORIENTED_EDGE('',*,*,#258,.T.);
#197=ORIENTED_EDGE('',*,*,#252,.T.);
#198=ORIENTED_EDGE('',*,*,#251,.F.);
#199=ORIENTED_EDGE('',*,*,#259,.T.);
#200=ORIENTED_EDGE('',*,*,#260,.T.);
#201=ORIENTED_EDGE('',*,*,#261,.F.);
#202=ORIENTED_EDGE('',*,*,#262,.T.);
#203=ORIENTED_EDGE('',*,*,#263,.T.);
#204=ORIENTED_EDGE('',*,*,#264,.T.);
#205=ORIENTED_EDGE('',*,*,#265,.F.);
#206=ORIENTED_EDGE('',*,*,#266,.T.);
#207=ORIENTED_EDGE('',*,*,#267,.T.);
#208=ORIENTED_EDGE('',*,*,#268,.T.);
#209=ORIENTED_EDGE('',*,*,#269,.T.);
#210=ORIENTED_EDGE('',*,*,#270,.T.);
#211=ORIENTED_EDGE('',*,*,#265,.T.);
#212=ORIENTED_EDGE('',*,*,#271,.T.);
#213=ORIENTED_EDGE('',*,*,#261,.T.);
#214=ORIENTED_EDGE('',*,*,#271,.F.);
#215=ORIENTED_EDGE('',*,*,#268,.F.);
#216=ORIENTED_EDGE('',*,*,#269,.F.);
#217=ORIENTED_EDGE('',*,*,#270,.F.);
#218=ORIENTED_EDGE('',*,*,#263,.F.);
#219=ORIENTED_EDGE('',*,*,#266,.F.);
#220=ORIENTED_EDGE('',*,*,#264,.F.);
#221=ORIENTED_EDGE('',*,*,#267,.F.);
#222=ORIENTED_EDGE('',*,*,#259,.F.);
#223=ORIENTED_EDGE('',*,*,#260,.F.);
#224=ORIENTED_EDGE('',*,*,#262,.F.);
#225=ORIENTED_EDGE('',*,*,#249,.F.);
#226=VERTEX_POINT('',#438);
#227=VERTEX_POINT('',#440);
#228=VERTEX_POINT('',#443);
#229=VERTEX_POINT('',#445);
#230=VERTEX_POINT('',#448);
#231=VERTEX_POINT('',#451);
#232=VERTEX_POINT('',#454);
#233=VERTEX_POINT('',#457);
#234=VERTEX_POINT('',#460);
#235=VERTEX_POINT('',#463);
#236=VERTEX_POINT('',#467);
#237=VERTEX_POINT('',#470);
#238=VERTEX_POINT('',#472);
#239=VERTEX_POINT('',#475);
#240=VERTEX_POINT('',#477);
#241=VERTEX_POINT('',#480);
#242=VERTEX_POINT('',#482);
#243=VERTEX_POINT('',#485);
#244=VERTEX_POINT('',#487);
#245=VERTEX_POINT('',#490);
#246=VERTEX_POINT('',#492);
#247=VERTEX_POINT('',#495);
#248=VERTEX_POINT('',#498);
#249=EDGE_CURVE('',#226,#226,#272,.T.);
#250=EDGE_CURVE('',#227,#227,#273,.T.);
#251=EDGE_CURVE('',#228,#228,#274,.T.);
#252=EDGE_CURVE('',#229,#229,#275,.T.);
#253=EDGE_CURVE('',#230,#230,#276,.T.);
#254=EDGE_CURVE('',#231,#231,#277,.T.);
#255=EDGE_CURVE('',#232,#232,#278,.T.);
#256=EDGE_CURVE('',#233,#233,#279,.T.);
#257=EDGE_CURVE('',#234,#234,#280,.T.);
#258=EDGE_CURVE('',#235,#235,#281,.T.);
#259=EDGE_CURVE('',#236,#236,#282,.T.);
#260=EDGE_CURVE('',#237,#237,#283,.T.);
#261=EDGE_CURVE('',#238,#238,#284,.T.);
#262=EDGE_CURVE('',#239,#239,#285,.T.);
#263=EDGE_CURVE('',#240,#240,#286,.T.);
#264=EDGE_CURVE('',#241,#241,#287,.T.);
#265=EDGE_CURVE('',#242,#242,#288,.T.);
#266=EDGE_CURVE('',#243,#243,#289,.T.);
#267=EDGE_CURVE('',#244,#244,#290,.T.);
#268=EDGE_CURVE('',#245,#245,#291,.T.);
#269=EDGE_CURVE('',#246,#246,#292,.T.);
#270=EDGE_CURVE('',#247,#247,#293,.T.);
#271=EDGE_CURVE('',#248,#248,#294,.T.);
#272=CIRCLE('',#296,12.45);
#273=CIRCLE('',#297,12.45);
#274=CIRCLE('',#299,8.85);
#275=CIRCLE('',#300,12.);
#276=CIRCLE('',#302,12.0000000000001);
#277=CIRCLE('',#304,12.45);
#278=CIRCLE('',#306,12.0000000000001);
#279=CIRCLE('',#308,12.45);
#280=CIRCLE('',#310,12.);
#281=CIRCLE('',#312,12.45);
#282=CIRCLE('',#315,8.85);
#283=CIRCLE('',#317,9.85);
#284=CIRCLE('',#318,12.);
#285=CIRCLE('',#320,13.45);
#286=CIRCLE('',#321,19.15);
#287=CIRCLE('',#323,19.15);
#288=CIRCLE('',#324,16.1);
#289=CIRCLE('',#326,19.65);
#290=CIRCLE('',#327,19.65);
#291=CIRCLE('',#329,12.5);
#292=CIRCLE('',#330,15.6);
#293=CIRCLE('',#332,16.1);
#294=CIRCLE('',#334,12.);
#295=AXIS2_PLACEMENT_3D('',#436,#342,#343);
#296=AXIS2_PLACEMENT_3D('',#437,#344,#345);
#297=AXIS2_PLACEMENT_3D('',#439,#346,#347);
#298=AXIS2_PLACEMENT_3D('',#441,#348,#349);
#299=AXIS2_PLACEMENT_3D('',#442,#350,#351);
#300=AXIS2_PLACEMENT_3D('',#444,#352,#353);
#301=AXIS2_PLACEMENT_3D('',#446,#354,#355);
#302=AXIS2_PLACEMENT_3D('',#447,#356,#357);
#303=AXIS2_PLACEMENT_3D('',#449,#358,#359);
#304=AXIS2_PLACEMENT_3D('',#450,#360,#361);
#305=AXIS2_PLACEMENT_3D('',#452,#362,#363);
#306=AXIS2_PLACEMENT_3D('',#453,#364,#365);
#307=AXIS2_PLACEMENT_3D('',#455,#366,#367);
#308=AXIS2_PLACEMENT_3D('',#456,#368,#369);
#309=AXIS2_PLACEMENT_3D('',#458,#370,#371);
#310=AXIS2_PLACEMENT_3D('',#459,#372,#373);
#311=AXIS2_PLACEMENT_3D('',#461,#374,#375);
#312=AXIS2_PLACEMENT_3D('',#462,#376,#377);
#313=AXIS2_PLACEMENT_3D('',#464,#378,#379);
#314=AXIS2_PLACEMENT_3D('',#465,#380,#381);
#315=AXIS2_PLACEMENT_3D('',#466,#382,#383);
#316=AXIS2_PLACEMENT_3D('',#468,#384,#385);
#317=AXIS2_PLACEMENT_3D('',#469,#386,#387);
#318=AXIS2_PLACEMENT_3D('',#471,#388,#389);
#319=AXIS2_PLACEMENT_3D('',#473,#390,#391);
#320=AXIS2_PLACEMENT_3D('',#474,#392,#393);
#321=AXIS2_PLACEMENT_3D('',#476,#394,#395);
#322=AXIS2_PLACEMENT_3D('',#478,#396,#397);
#323=AXIS2_PLACEMENT_3D('',#479,#398,#399);
#324=AXIS2_PLACEMENT_3D('',#481,#400,#401);
#325=AXIS2_PLACEMENT_3D('',#483,#402,#403);
#326=AXIS2_PLACEMENT_3D('',#484,#404,#405);
#327=AXIS2_PLACEMENT_3D('',#486,#406,#407);
#328=AXIS2_PLACEMENT_3D('',#488,#408,#409);
#329=AXIS2_PLACEMENT_3D('',#489,#410,#411);
#330=AXIS2_PLACEMENT_3D('',#491,#412,#413);
#331=AXIS2_PLACEMENT_3D('',#493,#414,#415);
#332=AXIS2_PLACEMENT_3D('',#494,#416,#417);
#333=AXIS2_PLACEMENT_3D('',#496,#418,#419);
#334=AXIS2_PLACEMENT_3D('',#497,#420,#421);
#335=AXIS2_PLACEMENT_3D('',#499,#422,#423);
#336=AXIS2_PLACEMENT_3D('',#500,#424,#425);
#337=AXIS2_PLACEMENT_3D('',#501,#426,#427);
#338=AXIS2_PLACEMENT_3D('',#502,#428,#429);
#339=AXIS2_PLACEMENT_3D('',#503,#430,#431);
#340=AXIS2_PLACEMENT_3D('',#504,#432,#433);
#341=AXIS2_PLACEMENT_3D('',#505,#434,#435);
#342=DIRECTION('',(0.,0.,1.));
#343=DIRECTION('',(1.,0.,0.));
#344=DIRECTION('',(0.,0.,1.));
#345=DIRECTION('',(1.,0.,0.));
#346=DIRECTION('',(0.,0.,-1.));
#347=DIRECTION('',(-1.,0.,0.));
#348=DIRECTION('',(0.,0.,1.));
#349=DIRECTION('',(1.,0.,0.));
#350=DIRECTION('',(0.,0.,-1.));
#351=DIRECTION('',(-1.,0.,0.));
#352=DIRECTION('',(0.,0.,-1.));
#353=DIRECTION('',(-1.,0.,0.));
#354=DIRECTION('',(0.,0.,1.));
#355=DIRECTION('',(1.,0.,0.));
#356=DIRECTION('',(0.,0.,1.));
#357=DIRECTION('',(-1.,0.,0.));
#358=DIRECTION('',(0.,0.,-1.));
#359=DIRECTION('',(-1.,0.,-1.35638808509802E-16));
#360=DIRECTION('',(0.,0.,1.));
#361=DIRECTION('',(-1.,0.,0.));
#362=DIRECTION('',(0.,0.,-1.));
#363=DIRECTION('',(-1.,0.,0.));
#364=DIRECTION('',(0.,0.,1.));
#365=DIRECTION('',(-1.,0.,0.));
#366=DIRECTION('',(0.,0.,-1.));
#367=DIRECTION('',(-0.999999999999999,0.,-9.04258723398586E-17));
#368=DIRECTION('',(0.,0.,1.));
#369=DIRECTION('',(-1.,0.,0.));
#370=DIRECTION('',(0.,0.,-1.));
#371=DIRECTION('',(-1.,0.,0.));
#372=DIRECTION('',(0.,0.,1.));
#373=DIRECTION('',(-1.,0.,0.));
#374=DIRECTION('',(0.,0.,-1.));
#375=DIRECTION('',(-1.,0.,0.));
#376=DIRECTION('',(0.,0.,1.));
#377=DIRECTION('',(-1.,0.,0.));
#378=DIRECTION('',(0.,0.,-1.));
#379=DIRECTION('',(-1.,0.,0.));
#380=DIRECTION('',(0.,0.,-1.));
#381=DIRECTION('',(-1.,0.,9.15055799510411E-17));
#382=DIRECTION('',(0.,0.,-1.));
#383=DIRECTION('',(-1.,0.,0.));
#384=DIRECTION('',(0.,0.,-1.));
#385=DIRECTION('',(-1.,0.,0.));
#386=DIRECTION('',(0.,0.,1.));
#387=DIRECTION('',(-1.,0.,0.));
#388=DIRECTION('',(0.,0.,1.));
#389=DIRECTION('',(1.,0.,0.));
#390=DIRECTION('',(0.,0.,-1.));
#391=DIRECTION('',(-1.,0.,0.));
#392=DIRECTION('',(0.,0.,-1.));
#393=DIRECTION('',(1.,0.,0.));
#394=DIRECTION('',(0.,0.,1.));
#395=DIRECTION('',(1.,0.,0.));
#396=DIRECTION('',(0.,0.,1.));
#397=DIRECTION('',(1.,0.,0.));
#398=DIRECTION('',(0.,0.,-1.));
#399=DIRECTION('',(-1.,0.,0.));
#400=DIRECTION('',(0.,0.,-1.));
#401=DIRECTION('',(1.,0.,0.));
#402=DIRECTION('',(0.,0.,-1.));
#403=DIRECTION('',(-1.,0.,0.));
#404=DIRECTION('',(0.,0.,-1.));
#405=DIRECTION('',(1.,0.,0.));
#406=DIRECTION('',(0.,0.,1.));
#407=DIRECTION('',(-1.,0.,0.));
#408=DIRECTION('',(0.,0.,1.));
#409=DIRECTION('',(1.,0.,0.));
#410=DIRECTION('',(0.,0.,1.));
#411=DIRECTION('',(-1.,0.,0.));
#412=DIRECTION('',(0.,0.,-1.));
#413=DIRECTION('',(-1.,0.,0.));
#414=DIRECTION('',(0.,0.,-1.));
#415=DIRECTION('',(-1.,0.,0.));
#416=DIRECTION('',(0.,0.,1.));
#417=DIRECTION('',(-1.,0.,0.));
#418=DIRECTION('',(0.,0.,-1.));
#419=DIRECTION('',(1.,0.,0.));
#420=DIRECTION('',(0.,0.,-1.));
#421=DIRECTION('',(-1.,0.,0.));
#422=DIRECTION('',(0.,0.,1.));
#423=DIRECTION('',(1.,0.,0.));
#424=DIRECTION('',(0.,0.,-1.));
#425=DIRECTION('',(-1.,0.,0.));
#426=DIRECTION('',(0.,0.,-1.));
#427=DIRECTION('',(-1.,0.,0.));
#428=DIRECTION('',(0.,0.,1.));
#429=DIRECTION('',(1.,0.,0.));
#430=DIRECTION('',(0.,0.,-1.));
#431=DIRECTION('',(-1.,0.,0.));
#432=DIRECTION('',(0.,0.,-1.));
#433=DIRECTION('',(-1.,0.,0.));
#434=DIRECTION('',(0.,0.,1.));
#435=DIRECTION('',(1.,0.,0.));
#436=CARTESIAN_POINT('',(0.,0.,0.));
#437=CARTESIAN_POINT('',(-435.,0.,2.5));
#438=CARTESIAN_POINT('',(-422.55,0.,2.5));
#439=CARTESIAN_POINT('',(-435.,0.,8.2));
#440=CARTESIAN_POINT('',(-447.45,0.,8.2));
#441=CARTESIAN_POINT('',(-435.,0.,1.5));
#442=CARTESIAN_POINT('',(-435.,0.,36.3));
#443=CARTESIAN_POINT('',(-443.85,0.,36.3));
#444=CARTESIAN_POINT('',(-435.,0.,36.3));
#445=CARTESIAN_POINT('',(-447.,0.,36.3));
#446=CARTESIAN_POINT('',(-435.,0.,36.3));
#447=CARTESIAN_POINT('',(-435.,0.,15.2));
#448=CARTESIAN_POINT('',(-447.,0.,15.2));
#449=CARTESIAN_POINT('',(-435.,0.,8.2));
#450=CARTESIAN_POINT('',(-435.,0.,15.2));
#451=CARTESIAN_POINT('',(-447.45,0.,15.2));
#452=CARTESIAN_POINT('',(-423.,0.,15.2));
#453=CARTESIAN_POINT('',(-435.,0.,22.2));
#454=CARTESIAN_POINT('',(-447.,0.,22.2));
#455=CARTESIAN_POINT('',(-435.,0.,15.2));
#456=CARTESIAN_POINT('',(-435.,0.,22.2));
#457=CARTESIAN_POINT('',(-447.45,0.,22.2));
#458=CARTESIAN_POINT('',(-423.,0.,22.2));
#459=CARTESIAN_POINT('',(-435.,0.,29.2));
#460=CARTESIAN_POINT('',(-447.,0.,29.2));
#461=CARTESIAN_POINT('',(-435.,0.,22.2));
#462=CARTESIAN_POINT('',(-435.,0.,29.2));
#463=CARTESIAN_POINT('',(-447.45,0.,29.2));
#464=CARTESIAN_POINT('',(-423.,0.,29.2));
#465=CARTESIAN_POINT('',(-435.,0.,29.2));
#466=CARTESIAN_POINT('',(-435.,0.,-3.7));
#467=CARTESIAN_POINT('',(-443.85,0.,-3.7));
#468=CARTESIAN_POINT('',(-435.,0.,36.3));
#469=CARTESIAN_POINT('',(-435.,0.,-4.7));
#470=CARTESIAN_POINT('',(-444.85,0.,-4.7));
#471=CARTESIAN_POINT('',(-435.,0.,-4.7));
#472=CARTESIAN_POINT('',(-423.,0.,-4.7));
#473=CARTESIAN_POINT('',(-435.,0.,-4.7));
#474=CARTESIAN_POINT('',(-435.,0.,1.5));
#475=CARTESIAN_POINT('',(-421.55,0.,1.5));
#476=CARTESIAN_POINT('',(-435.,0.,1.5));
#477=CARTESIAN_POINT('',(-415.85,0.,1.5));
#478=CARTESIAN_POINT('',(-435.,0.,1.5));
#479=CARTESIAN_POINT('',(-435.,0.,-4.7));
#480=CARTESIAN_POINT('',(-454.15,0.,-4.7));
#481=CARTESIAN_POINT('',(-435.,0.,-4.7));
#482=CARTESIAN_POINT('',(-418.9,0.,-4.7));
#483=CARTESIAN_POINT('',(-435.,0.,-4.7));
#484=CARTESIAN_POINT('',(-435.,0.,1.));
#485=CARTESIAN_POINT('',(-415.35,0.,1.));
#486=CARTESIAN_POINT('',(-435.,0.,-4.2));
#487=CARTESIAN_POINT('',(-454.65,0.,-4.2));
#488=CARTESIAN_POINT('',(-435.,0.,-4.7));
#489=CARTESIAN_POINT('',(-435.,0.,-25.6));
#490=CARTESIAN_POINT('',(-447.5,0.,-25.6));
#491=CARTESIAN_POINT('',(-435.,0.,-25.6));
#492=CARTESIAN_POINT('',(-450.6,0.,-25.6));
#493=CARTESIAN_POINT('',(-435.,0.,-25.6));
#494=CARTESIAN_POINT('',(-435.,0.,-25.1));
#495=CARTESIAN_POINT('',(-451.1,0.,-25.1));
#496=CARTESIAN_POINT('',(-435.,0.,-4.7));
#497=CARTESIAN_POINT('',(-435.,0.,-25.1));
#498=CARTESIAN_POINT('',(-447.,0.,-25.1));
#499=CARTESIAN_POINT('',(-435.,0.,-25.6));
#500=CARTESIAN_POINT('',(-435.,0.,-25.1));
#501=CARTESIAN_POINT('',(-435.,0.,-25.1));
#502=CARTESIAN_POINT('',(-435.,0.,1.));
#503=CARTESIAN_POINT('',(-435.,0.,-4.2));
#504=CARTESIAN_POINT('',(-435.,0.,-3.7));
#505=CARTESIAN_POINT('',(-435.,0.,2.5));
#506=MECHANICAL_DESIGN_GEOMETRIC_PRESENTATION_REPRESENTATION('',(#32),#507);
#507=(
GEOMETRIC_REPRESENTATION_CONTEXT(3)
GLOBAL_UNCERTAINTY_ASSIGNED_CONTEXT((#508))
GLOBAL_UNIT_ASSIGNED_CONTEXT((#514,#510,#509))
REPRESENTATION_CONTEXT('32X25\X2\63D253E38F6F63A5\X0\',
'TOP_LEVEL_ASSEMBLY_PART')
);
#508=UNCERTAINTY_MEASURE_WITH_UNIT(LENGTH_MEASURE(2.E-5),#514,
'DISTANCE_ACCURACY_VALUE','Maximum Tolerance applied to model');
#509=(
NAMED_UNIT(*)
SI_UNIT($,.STERADIAN.)
SOLID_ANGLE_UNIT()
);
#510=(
CONVERSION_BASED_UNIT('DEGREE',#512)
NAMED_UNIT(#511)
PLANE_ANGLE_UNIT()
);
#511=DIMENSIONAL_EXPONENTS(0.,0.,0.,0.,0.,0.,0.);
#512=PLANE_ANGLE_MEASURE_WITH_UNIT(PLANE_ANGLE_MEASURE(0.0174532925),#513);
#513=(
NAMED_UNIT(*)
PLANE_ANGLE_UNIT()
SI_UNIT($,.RADIAN.)
);
#514=(
LENGTH_UNIT()
NAMED_UNIT(*)
SI_UNIT(.MILLI.,.METRE.)
);
ENDSEC;
END-ISO-10303-21;
