ISO-10303-21;
HEADER;
/* Generated by software containing ST-Developer
 * from STEP Tools, Inc. (www.steptools.com) 
 */
/* OPTION: using custom schema-name function */

FILE_DESCRIPTION(
/* description */ (''),
/* implementation_level */ '2;1');

FILE_NAME(
/* name */ 'PVC HOSE CONNECTION SxS DIN 32-32MM GREY.stp',
/* time_stamp */ '2023-05-13T10:23:29+08:00',
/* author */ (''),
/* organization */ (''),
/* preprocessor_version */ 'ST-DEVELOPER v16',
/* originating_system */ 'SIEMENS PLM Software NX 10.0',
/* authorisation */ '');

FILE_SCHEMA (('AUTOMOTIVE_DESIGN { 1 0 10303 214 3 1 1 1 }'));
ENDSEC;

DATA;
#10=PROPERTY_DEFINITION_REPRESENTATION(#14,#12);
#11=PROPERTY_DEFINITION_REPRESENTATION(#15,#13);
#12=REPRESENTATION('',(#16),#447);
#13=REPRESENTATION('',(#17),#447);
#14=PROPERTY_DEFINITION('pmi validation property','',#21);
#15=PROPERTY_DEFINITION('pmi validation property','',#21);
#16=VALUE_REPRESENTATION_ITEM('number of annotations',COUNT_MEASURE(0.));
#17=VALUE_REPRESENTATION_ITEM('number of views',COUNT_MEASURE(0.));
#18=SHAPE_REPRESENTATION_RELATIONSHIP('None',
'relationship between gelv1214D7C3km4j-None and gelv1214D7C3km4j-None',
#30,#19);
#19=ADVANCED_BREP_SHAPE_REPRESENTATION('gelv1214D7C3km4j-None',(#40),#447);
#20=SHAPE_DEFINITION_REPRESENTATION(#21,#30);
#21=PRODUCT_DEFINITION_SHAPE('','',#22);
#22=PRODUCT_DEFINITION(' ','',#24,#23);
#23=PRODUCT_DEFINITION_CONTEXT('part definition',#29,'design');
#24=PRODUCT_DEFINITION_FORMATION_WITH_SPECIFIED_SOURCE(' ',' ',#26,
 .NOT_KNOWN.);
#25=PRODUCT_RELATED_PRODUCT_CATEGORY('part','',(#26));
#26=PRODUCT('gelv1214D7C3km4j','gelv1214D7C3km4j',' ',(#27));
#27=PRODUCT_CONTEXT(' ',#29,'mechanical');
#28=APPLICATION_PROTOCOL_DEFINITION('international standard',
'automotive_design',2010,#29);
#29=APPLICATION_CONTEXT(
'core data for automotive mechanical design processes');
#30=SHAPE_REPRESENTATION('gelv1214D7C3km4j-None',(#262),#447);
#31=PRESENTATION_LAYER_ASSIGNMENT('1','Layer 1',(#40));
#32=STYLED_ITEM('',(#33),#40);
#33=PRESENTATION_STYLE_ASSIGNMENT((#34));
#34=SURFACE_STYLE_USAGE(.BOTH.,#35);
#35=SURFACE_SIDE_STYLE('',(#36));
#36=SURFACE_STYLE_FILL_AREA(#37);
#37=FILL_AREA_STYLE('',(#38));
#38=FILL_AREA_STYLE_COLOUR('',#39);
#39=COLOUR_RGB('Deep Sky',0.337239642938888,0.694102388036927,1.);
#40=MANIFOLD_SOLID_BREP('',#41);
#41=CLOSED_SHELL('',(#60,#61,#62,#63,#64,#65,#66,#67,#68,#69,#70,#71,#72,
#73,#74,#75,#76,#77,#78,#79));
#42=TOROIDAL_SURFACE('',#295,10.2104052064554,6.);
#43=TOROIDAL_SURFACE('',#300,14.8298671184341,1.);
#44=CONICAL_SURFACE('',#270,15.7500000000001,4.7636416907254);
#45=CONICAL_SURFACE('',#274,15.75,4.72445169717089);
#46=CONICAL_SURFACE('',#282,15.7500000000001,4.7636416907254);
#47=CONICAL_SURFACE('',#286,15.7500000000001,4.7636416907254);
#48=CONICAL_SURFACE('',#289,16.,0.478250825087435);
#49=CONICAL_SURFACE('',#291,15.75,4.72445169717089);
#50=CONICAL_SURFACE('',#299,12.5,0.6);
#51=CONICAL_SURFACE('',#301,16.0041734773104,45.2391254125429);
#52=CONICAL_SURFACE('',#302,13.2618089580574,45.2999999999998);
#53=PLANE('',#267);
#54=PLANE('',#272);
#55=PLANE('',#276);
#56=PLANE('',#281);
#57=PLANE('',#285);
#58=PLANE('',#294);
#59=PLANE('',#297);
#60=ADVANCED_FACE('',(#82,#83),#80,.F.);
#61=ADVANCED_FACE('',(#84,#85),#53,.F.);
#62=ADVANCED_FACE('',(#86,#87),#44,.T.);
#63=ADVANCED_FACE('',(#88,#89),#54,.F.);
#64=ADVANCED_FACE('',(#90,#91),#45,.T.);
#65=ADVANCED_FACE('',(#92,#93),#55,.F.);
#66=ADVANCED_FACE('',(#94,#95),#81,.T.);
#67=ADVANCED_FACE('',(#96,#97),#56,.F.);
#68=ADVANCED_FACE('',(#98,#99),#46,.T.);
#69=ADVANCED_FACE('',(#100,#101),#57,.F.);
#70=ADVANCED_FACE('',(#102,#103),#47,.T.);
#71=ADVANCED_FACE('',(#104,#105),#48,.T.);
#72=ADVANCED_FACE('',(#106,#107),#49,.T.);
#73=ADVANCED_FACE('',(#108,#109),#58,.T.);
#74=ADVANCED_FACE('',(#110,#111),#42,.T.);
#75=ADVANCED_FACE('',(#112,#113),#59,.F.);
#76=ADVANCED_FACE('',(#114,#115),#50,.F.);
#77=ADVANCED_FACE('',(#116,#117),#43,.T.);
#78=ADVANCED_FACE('',(#118,#119),#51,.T.);
#79=ADVANCED_FACE('',(#120,#121),#52,.F.);
#80=CYLINDRICAL_SURFACE('',#265,12.);
#81=CYLINDRICAL_SURFACE('',#278,15.75);
#82=FACE_BOUND('',#122,.T.);
#83=FACE_BOUND('',#123,.T.);
#84=FACE_BOUND('',#124,.T.);
#85=FACE_BOUND('',#125,.T.);
#86=FACE_BOUND('',#126,.T.);
#87=FACE_BOUND('',#127,.T.);
#88=FACE_BOUND('',#128,.T.);
#89=FACE_BOUND('',#129,.T.);
#90=FACE_BOUND('',#130,.T.);
#91=FACE_BOUND('',#131,.T.);
#92=FACE_BOUND('',#132,.T.);
#93=FACE_BOUND('',#133,.T.);
#94=FACE_BOUND('',#134,.T.);
#95=FACE_BOUND('',#135,.T.);
#96=FACE_BOUND('',#136,.T.);
#97=FACE_BOUND('',#137,.T.);
#98=FACE_BOUND('',#138,.T.);
#99=FACE_BOUND('',#139,.T.);
#100=FACE_BOUND('',#140,.T.);
#101=FACE_BOUND('',#141,.T.);
#102=FACE_BOUND('',#142,.T.);
#103=FACE_BOUND('',#143,.T.);
#104=FACE_BOUND('',#144,.T.);
#105=FACE_BOUND('',#145,.T.);
#106=FACE_BOUND('',#146,.T.);
#107=FACE_BOUND('',#147,.T.);
#108=FACE_BOUND('',#148,.T.);
#109=FACE_BOUND('',#149,.T.);
#110=FACE_BOUND('',#150,.T.);
#111=FACE_BOUND('',#151,.T.);
#112=FACE_BOUND('',#152,.T.);
#113=FACE_BOUND('',#153,.T.);
#114=FACE_BOUND('',#154,.T.);
#115=FACE_BOUND('',#155,.T.);
#116=FACE_BOUND('',#156,.T.);
#117=FACE_BOUND('',#157,.T.);
#118=FACE_BOUND('',#158,.T.);
#119=FACE_BOUND('',#159,.T.);
#120=FACE_BOUND('',#160,.T.);
#121=FACE_BOUND('',#161,.T.);
#122=EDGE_LOOP('',(#162));
#123=EDGE_LOOP('',(#163));
#124=EDGE_LOOP('',(#164));
#125=EDGE_LOOP('',(#165));
#126=EDGE_LOOP('',(#166));
#127=EDGE_LOOP('',(#167));
#128=EDGE_LOOP('',(#168));
#129=EDGE_LOOP('',(#169));
#130=EDGE_LOOP('',(#170));
#131=EDGE_LOOP('',(#171));
#132=EDGE_LOOP('',(#172));
#133=EDGE_LOOP('',(#173));
#134=EDGE_LOOP('',(#174));
#135=EDGE_LOOP('',(#175));
#136=EDGE_LOOP('',(#176));
#137=EDGE_LOOP('',(#177));
#138=EDGE_LOOP('',(#178));
#139=EDGE_LOOP('',(#179));
#140=EDGE_LOOP('',(#180));
#141=EDGE_LOOP('',(#181));
#142=EDGE_LOOP('',(#182));
#143=EDGE_LOOP('',(#183));
#144=EDGE_LOOP('',(#184));
#145=EDGE_LOOP('',(#185));
#146=EDGE_LOOP('',(#186));
#147=EDGE_LOOP('',(#187));
#148=EDGE_LOOP('',(#188));
#149=EDGE_LOOP('',(#189));
#150=EDGE_LOOP('',(#190));
#151=EDGE_LOOP('',(#191));
#152=EDGE_LOOP('',(#192));
#153=EDGE_LOOP('',(#193));
#154=EDGE_LOOP('',(#194));
#155=EDGE_LOOP('',(#195));
#156=EDGE_LOOP('',(#196));
#157=EDGE_LOOP('',(#197));
#158=EDGE_LOOP('',(#198));
#159=EDGE_LOOP('',(#199));
#160=EDGE_LOOP('',(#200));
#161=EDGE_LOOP('',(#201));
#162=ORIENTED_EDGE('',*,*,#222,.F.);
#163=ORIENTED_EDGE('',*,*,#223,.T.);
#164=ORIENTED_EDGE('',*,*,#222,.T.);
#165=ORIENTED_EDGE('',*,*,#224,.T.);
#166=ORIENTED_EDGE('',*,*,#225,.T.);
#167=ORIENTED_EDGE('',*,*,#226,.F.);
#168=ORIENTED_EDGE('',*,*,#227,.F.);
#169=ORIENTED_EDGE('',*,*,#226,.T.);
#170=ORIENTED_EDGE('',*,*,#228,.F.);
#171=ORIENTED_EDGE('',*,*,#227,.T.);
#172=ORIENTED_EDGE('',*,*,#229,.F.);
#173=ORIENTED_EDGE('',*,*,#228,.T.);
#174=ORIENTED_EDGE('',*,*,#229,.T.);
#175=ORIENTED_EDGE('',*,*,#230,.T.);
#176=ORIENTED_EDGE('',*,*,#231,.T.);
#177=ORIENTED_EDGE('',*,*,#232,.T.);
#178=ORIENTED_EDGE('',*,*,#232,.F.);
#179=ORIENTED_EDGE('',*,*,#230,.F.);
#180=ORIENTED_EDGE('',*,*,#233,.F.);
#181=ORIENTED_EDGE('',*,*,#234,.T.);
#182=ORIENTED_EDGE('',*,*,#234,.F.);
#183=ORIENTED_EDGE('',*,*,#231,.F.);
#184=ORIENTED_EDGE('',*,*,#235,.T.);
#185=ORIENTED_EDGE('',*,*,#236,.T.);
#186=ORIENTED_EDGE('',*,*,#237,.T.);
#187=ORIENTED_EDGE('',*,*,#233,.T.);
#188=ORIENTED_EDGE('',*,*,#238,.T.);
#189=ORIENTED_EDGE('',*,*,#239,.T.);
#190=ORIENTED_EDGE('',*,*,#237,.F.);
#191=ORIENTED_EDGE('',*,*,#236,.F.);
#192=ORIENTED_EDGE('',*,*,#240,.F.);
#193=ORIENTED_EDGE('',*,*,#223,.F.);
#194=ORIENTED_EDGE('',*,*,#241,.T.);
#195=ORIENTED_EDGE('',*,*,#240,.T.);
#196=ORIENTED_EDGE('',*,*,#224,.F.);
#197=ORIENTED_EDGE('',*,*,#225,.F.);
#198=ORIENTED_EDGE('',*,*,#239,.F.);
#199=ORIENTED_EDGE('',*,*,#235,.F.);
#200=ORIENTED_EDGE('',*,*,#241,.F.);
#201=ORIENTED_EDGE('',*,*,#238,.F.);
#202=VERTEX_POINT('',#387);
#203=VERTEX_POINT('',#389);
#204=VERTEX_POINT('',#392);
#205=VERTEX_POINT('',#395);
#206=VERTEX_POINT('',#397);
#207=VERTEX_POINT('',#400);
#208=VERTEX_POINT('',#403);
#209=VERTEX_POINT('',#406);
#210=VERTEX_POINT('',#409);
#211=VERTEX_POINT('',#412);
#212=VERTEX_POINT('',#414);
#213=VERTEX_POINT('',#418);
#214=VERTEX_POINT('',#420);
#215=VERTEX_POINT('',#424);
#216=VERTEX_POINT('',#426);
#217=VERTEX_POINT('',#429);
#218=VERTEX_POINT('',#432);
#219=VERTEX_POINT('',#434);
#220=VERTEX_POINT('',#438);
#221=VERTEX_POINT('',#441);
#222=EDGE_CURVE('',#202,#202,#242,.T.);
#223=EDGE_CURVE('',#203,#203,#243,.T.);
#224=EDGE_CURVE('',#204,#204,#244,.T.);
#225=EDGE_CURVE('',#205,#205,#245,.T.);
#226=EDGE_CURVE('',#206,#206,#246,.T.);
#227=EDGE_CURVE('',#207,#207,#247,.T.);
#228=EDGE_CURVE('',#208,#208,#248,.T.);
#229=EDGE_CURVE('',#209,#209,#249,.T.);
#230=EDGE_CURVE('',#210,#210,#250,.T.);
#231=EDGE_CURVE('',#211,#211,#251,.T.);
#232=EDGE_CURVE('',#212,#212,#252,.T.);
#233=EDGE_CURVE('',#213,#213,#253,.T.);
#234=EDGE_CURVE('',#214,#214,#254,.T.);
#235=EDGE_CURVE('',#215,#215,#255,.T.);
#236=EDGE_CURVE('',#216,#216,#256,.T.);
#237=EDGE_CURVE('',#217,#217,#257,.T.);
#238=EDGE_CURVE('',#218,#218,#258,.T.);
#239=EDGE_CURVE('',#219,#219,#259,.T.);
#240=EDGE_CURVE('',#220,#220,#260,.T.);
#241=EDGE_CURVE('',#221,#221,#261,.T.);
#242=CIRCLE('',#263,12.);
#243=CIRCLE('',#264,12.);
#244=CIRCLE('',#266,14.8298671184341);
#245=CIRCLE('',#268,15.8264128766789);
#246=CIRCLE('',#269,16.25);
#247=CIRCLE('',#271,15.75);
#248=CIRCLE('',#273,16.25);
#249=CIRCLE('',#275,15.75);
#250=CIRCLE('',#277,15.7500000000001);
#251=CIRCLE('',#279,15.7500000000001);
#252=CIRCLE('',#280,16.25);
#253=CIRCLE('',#283,15.75);
#254=CIRCLE('',#284,16.25);
#255=CIRCLE('',#287,16.0041734773104);
#256=CIRCLE('',#288,16.2101961878604);
#257=CIRCLE('',#290,16.1900191730709);
#258=CIRCLE('',#292,13.2618089580574);
#259=CIRCLE('',#293,15.5);
#260=CIRCLE('',#296,12.5);
#261=CIRCLE('',#298,12.7565730659993);
#262=AXIS2_PLACEMENT_3D('',#385,#303,#304);
#263=AXIS2_PLACEMENT_3D('',#386,#305,#306);
#264=AXIS2_PLACEMENT_3D('',#388,#307,#308);
#265=AXIS2_PLACEMENT_3D('',#390,#309,#310);
#266=AXIS2_PLACEMENT_3D('',#391,#311,#312);
#267=AXIS2_PLACEMENT_3D('',#393,#313,#314);
#268=AXIS2_PLACEMENT_3D('',#394,#315,#316);
#269=AXIS2_PLACEMENT_3D('',#396,#317,#318);
#270=AXIS2_PLACEMENT_3D('',#398,#319,#320);
#271=AXIS2_PLACEMENT_3D('',#399,#321,#322);
#272=AXIS2_PLACEMENT_3D('',#401,#323,#324);
#273=AXIS2_PLACEMENT_3D('',#402,#325,#326);
#274=AXIS2_PLACEMENT_3D('',#404,#327,#328);
#275=AXIS2_PLACEMENT_3D('',#405,#329,#330);
#276=AXIS2_PLACEMENT_3D('',#407,#331,#332);
#277=AXIS2_PLACEMENT_3D('',#408,#333,#334);
#278=AXIS2_PLACEMENT_3D('',#410,#335,#336);
#279=AXIS2_PLACEMENT_3D('',#411,#337,#338);
#280=AXIS2_PLACEMENT_3D('',#413,#339,#340);
#281=AXIS2_PLACEMENT_3D('',#415,#341,#342);
#282=AXIS2_PLACEMENT_3D('',#416,#343,#344);
#283=AXIS2_PLACEMENT_3D('',#417,#345,#346);
#284=AXIS2_PLACEMENT_3D('',#419,#347,#348);
#285=AXIS2_PLACEMENT_3D('',#421,#349,#350);
#286=AXIS2_PLACEMENT_3D('',#422,#351,#352);
#287=AXIS2_PLACEMENT_3D('',#423,#353,#354);
#288=AXIS2_PLACEMENT_3D('',#425,#355,#356);
#289=AXIS2_PLACEMENT_3D('',#427,#357,#358);
#290=AXIS2_PLACEMENT_3D('',#428,#359,#360);
#291=AXIS2_PLACEMENT_3D('',#430,#361,#362);
#292=AXIS2_PLACEMENT_3D('',#431,#363,#364);
#293=AXIS2_PLACEMENT_3D('',#433,#365,#366);
#294=AXIS2_PLACEMENT_3D('',#435,#367,#368);
#295=AXIS2_PLACEMENT_3D('',#436,#369,#370);
#296=AXIS2_PLACEMENT_3D('',#437,#371,#372);
#297=AXIS2_PLACEMENT_3D('',#439,#373,#374);
#298=AXIS2_PLACEMENT_3D('',#440,#375,#376);
#299=AXIS2_PLACEMENT_3D('',#442,#377,#378);
#300=AXIS2_PLACEMENT_3D('',#443,#379,#380);
#301=AXIS2_PLACEMENT_3D('',#444,#381,#382);
#302=AXIS2_PLACEMENT_3D('',#445,#383,#384);
#303=DIRECTION('',(0.,0.,1.));
#304=DIRECTION('',(1.,0.,0.));
#305=DIRECTION('',(0.,0.,-1.));
#306=DIRECTION('',(-1.,0.,0.));
#307=DIRECTION('',(0.,0.,-1.));
#308=DIRECTION('',(1.,0.,0.));
#309=DIRECTION('',(0.,0.,-1.));
#310=DIRECTION('',(-1.,0.,0.));
#311=DIRECTION('',(0.,0.,1.));
#312=DIRECTION('',(-1.,0.,0.));
#313=DIRECTION('',(0.,0.,-1.));
#314=DIRECTION('',(-1.,0.,0.));
#315=DIRECTION('',(0.,0.,-1.));
#316=DIRECTION('',(1.,0.,0.));
#317=DIRECTION('',(0.,0.,-1.));
#318=DIRECTION('',(-1.,0.,0.));
#319=DIRECTION('',(0.,0.,-1.));
#320=DIRECTION('',(-1.,0.,5.60247110828583E-16));
#321=DIRECTION('',(0.,0.,-1.));
#322=DIRECTION('',(-1.,0.,0.));
#323=DIRECTION('',(0.,0.,1.));
#324=DIRECTION('',(1.,0.,0.));
#325=DIRECTION('',(0.,0.,-1.));
#326=DIRECTION('',(-1.,0.,0.));
#327=DIRECTION('',(0.,0.,-1.));
#328=DIRECTION('',(-1.,0.,4.23126386345812E-16));
#329=DIRECTION('',(0.,0.,-1.));
#330=DIRECTION('',(-1.,0.,0.));
#331=DIRECTION('',(0.,0.,1.));
#332=DIRECTION('',(1.,0.,0.));
#333=DIRECTION('',(0.,0.,1.));
#334=DIRECTION('',(1.,0.,0.));
#335=DIRECTION('',(0.,0.,1.));
#336=DIRECTION('',(1.,0.,0.));
#337=DIRECTION('',(0.,0.,1.));
#338=DIRECTION('',(1.,0.,0.));
#339=DIRECTION('',(0.,0.,-1.));
#340=DIRECTION('',(-1.,0.,0.));
#341=DIRECTION('',(0.,0.,1.));
#342=DIRECTION('',(1.,0.,0.));
#343=DIRECTION('',(0.,0.,-1.));
#344=DIRECTION('',(-1.,0.,3.50154444267864E-16));
#345=DIRECTION('',(0.,0.,-1.));
#346=DIRECTION('',(-1.,0.,0.));
#347=DIRECTION('',(0.,0.,-1.));
#348=DIRECTION('',(-1.,0.,0.));
#349=DIRECTION('',(0.,0.,1.));
#350=DIRECTION('',(1.,0.,0.));
#351=DIRECTION('',(0.,0.,-1.));
#352=DIRECTION('',(-1.,0.,2.80123555414291E-16));
#353=DIRECTION('',(0.,0.,1.));
#354=DIRECTION('',(-1.,0.,0.));
#355=DIRECTION('',(0.,0.,-1.));
#356=DIRECTION('',(1.,0.,0.));
#357=DIRECTION('',(0.,0.,1.));
#358=DIRECTION('',(0.999999999999999,0.,0.));
#359=DIRECTION('',(0.,0.,1.));
#360=DIRECTION('',(-1.,0.,0.));
#361=DIRECTION('',(0.,0.,-1.));
#362=DIRECTION('',(-1.,0.,3.52605321954843E-17));
#363=DIRECTION('',(0.,0.,1.));
#364=DIRECTION('',(-1.,0.,0.));
#365=DIRECTION('',(0.,0.,-1.));
#366=DIRECTION('',(-1.,0.,0.));
#367=DIRECTION('',(0.,0.,-1.));
#368=DIRECTION('',(-1.,0.,0.));
#369=DIRECTION('',(0.,0.,1.));
#370=DIRECTION('',(1.,0.,0.));
#371=DIRECTION('',(0.,0.,1.));
#372=DIRECTION('',(1.,0.,0.));
#373=DIRECTION('',(0.,0.,1.));
#374=DIRECTION('',(1.,0.,0.));
#375=DIRECTION('',(0.,0.,-1.));
#376=DIRECTION('',(-1.,0.,0.));
#377=DIRECTION('',(0.,0.,-1.));
#378=DIRECTION('',(-1.,0.,9.06162154519278E-16));
#379=DIRECTION('',(0.,0.,-1.));
#380=DIRECTION('',(-1.,0.,0.));
#381=DIRECTION('',(0.,0.,1.));
#382=DIRECTION('',(1.,0.,-3.17517586429426E-18));
#383=DIRECTION('',(0.,0.,-1.));
#384=DIRECTION('',(-1.,0.,0.));
#385=CARTESIAN_POINT('',(0.,0.,0.));
#386=CARTESIAN_POINT('',(210.,0.,65.05));
#387=CARTESIAN_POINT('',(198.,0.,65.05));
#388=CARTESIAN_POINT('',(210.,0.,25.));
#389=CARTESIAN_POINT('',(222.,0.,25.));
#390=CARTESIAN_POINT('',(210.,0.,53.));
#391=CARTESIAN_POINT('',(210.,0.,65.05));
#392=CARTESIAN_POINT('',(195.170132881566,0.,65.05));
#393=CARTESIAN_POINT('',(222.5,0.,65.05));
#394=CARTESIAN_POINT('',(210.,0.,64.1330454798537));
#395=CARTESIAN_POINT('',(225.826412876679,0.,64.1330454798537));
#396=CARTESIAN_POINT('',(210.,0.,59.05));
#397=CARTESIAN_POINT('',(193.75,0.,59.05));
#398=CARTESIAN_POINT('',(210.,0.,65.05));
#399=CARTESIAN_POINT('',(210.,0.,59.05));
#400=CARTESIAN_POINT('',(194.25,0.,59.05));
#401=CARTESIAN_POINT('',(226.25,0.,59.05));
#402=CARTESIAN_POINT('',(210.,0.,53.));
#403=CARTESIAN_POINT('',(193.75,0.,53.));
#404=CARTESIAN_POINT('',(210.,0.,59.05));
#405=CARTESIAN_POINT('',(210.,0.,53.));
#406=CARTESIAN_POINT('',(194.25,0.,53.));
#407=CARTESIAN_POINT('',(226.25,0.,53.));
#408=CARTESIAN_POINT('',(210.,0.,43.05));
#409=CARTESIAN_POINT('',(225.75,0.,43.05));
#410=CARTESIAN_POINT('',(210.,0.,13.));
#411=CARTESIAN_POINT('',(210.,0.,37.05));
#412=CARTESIAN_POINT('',(225.75,0.,37.05));
#413=CARTESIAN_POINT('',(210.,0.,37.05));
#414=CARTESIAN_POINT('',(193.75,0.,37.05));
#415=CARTESIAN_POINT('',(226.25,0.,37.05));
#416=CARTESIAN_POINT('',(210.,0.,43.05));
#417=CARTESIAN_POINT('',(210.,0.,31.05));
#418=CARTESIAN_POINT('',(194.25,0.,31.05));
#419=CARTESIAN_POINT('',(210.,0.,31.05));
#420=CARTESIAN_POINT('',(193.75,0.,31.05));
#421=CARTESIAN_POINT('',(226.25,0.,31.05));
#422=CARTESIAN_POINT('',(210.,0.,37.05));
#423=CARTESIAN_POINT('',(210.,0.,0.499982581783964));
#424=CARTESIAN_POINT('',(193.99582652269,0.,0.499982581783964));
#425=CARTESIAN_POINT('',(210.,0.,25.1815033056699));
#426=CARTESIAN_POINT('',(226.21019618786,0.,25.1815033056699));
#427=CARTESIAN_POINT('',(210.,0.,0.));
#428=CARTESIAN_POINT('',(210.,0.,25.725768005842));
#429=CARTESIAN_POINT('',(193.809980826929,0.,25.725768005842));
#430=CARTESIAN_POINT('',(210.,0.,31.05));
#431=CARTESIAN_POINT('',(210.,0.,0.));
#432=CARTESIAN_POINT('',(196.738191041943,0.,0.));
#433=CARTESIAN_POINT('',(210.,0.,0.));
#434=CARTESIAN_POINT('',(194.5,0.,0.));
#435=CARTESIAN_POINT('',(210.,0.,0.));
#436=CARTESIAN_POINT('',(210.,0.,25.2315850333945));
#437=CARTESIAN_POINT('',(210.,0.,25.));
#438=CARTESIAN_POINT('',(222.5,0.,25.));
#439=CARTESIAN_POINT('',(210.,0.,25.));
#440=CARTESIAN_POINT('',(210.,0.,0.499972584682754));
#441=CARTESIAN_POINT('',(197.243426934001,0.,0.499972584682754));
#442=CARTESIAN_POINT('',(210.,0.,25.));
#443=CARTESIAN_POINT('',(210.,0.,64.05));
#444=CARTESIAN_POINT('',(210.,0.,0.499982581783745));
#445=CARTESIAN_POINT('',(210.,0.,0.));
#446=MECHANICAL_DESIGN_GEOMETRIC_PRESENTATION_REPRESENTATION('',(#32),#447);
#447=(
GEOMETRIC_REPRESENTATION_CONTEXT(3)
GLOBAL_UNCERTAINTY_ASSIGNED_CONTEXT((#448))
GLOBAL_UNIT_ASSIGNED_CONTEXT((#454,#450,#449))
REPRESENTATION_CONTEXT('PVC HOSE CONNECTION SxS DIN 32-32MM GREY',
'TOP_LEVEL_ASSEMBLY_PART')
);
#448=UNCERTAINTY_MEASURE_WITH_UNIT(LENGTH_MEASURE(2.E-5),#454,
'DISTANCE_ACCURACY_VALUE','Maximum Tolerance applied to model');
#449=(
NAMED_UNIT(*)
SI_UNIT($,.STERADIAN.)
SOLID_ANGLE_UNIT()
);
#450=(
CONVERSION_BASED_UNIT('DEGREE',#452)
NAMED_UNIT(#451)
PLANE_ANGLE_UNIT()
);
#451=DIMENSIONAL_EXPONENTS(0.,0.,0.,0.,0.,0.,0.);
#452=PLANE_ANGLE_MEASURE_WITH_UNIT(PLANE_ANGLE_MEASURE(0.0174532925),#453);
#453=(
NAMED_UNIT(*)
PLANE_ANGLE_UNIT()
SI_UNIT($,.RADIAN.)
);
#454=(
LENGTH_UNIT()
NAMED_UNIT(*)
SI_UNIT(.MILLI.,.METRE.)
);
ENDSEC;
END-ISO-10303-21;
