ISO-10303-21;
HEADER;
/* Generated by software containing ST-Developer
 * from STEP Tools, Inc. (www.steptools.com) 
 */
/* OPTION: using custom schema-name function */

FILE_DESCRIPTION(
/* description */ (''),
/* implementation_level */ '2;1');

FILE_NAME(
/* name */ 'PVC HOSE CONNECTION SxS DIN 50-38MM GREY.stp',
/* time_stamp */ '2023-05-13T10:24:10+08:00',
/* author */ (''),
/* organization */ (''),
/* preprocessor_version */ 'ST-DEVELOPER v16',
/* originating_system */ 'SIEMENS PLM Software NX 10.0',
/* authorisation */ '');

FILE_SCHEMA (('AUTOMOTIVE_DESIGN { 1 0 10303 214 3 1 1 1 }'));
ENDSEC;

DATA;
#10=PROPERTY_DEFINITION_REPRESENTATION(#14,#12);
#11=PROPERTY_DEFINITION_REPRESENTATION(#15,#13);
#12=REPRESENTATION('',(#16),#587);
#13=REPRESENTATION('',(#17),#587);
#14=PROPERTY_DEFINITION('pmi validation property','',#21);
#15=PROPERTY_DEFINITION('pmi validation property','',#21);
#16=VALUE_REPRESENTATION_ITEM('number of annotations',COUNT_MEASURE(0.));
#17=VALUE_REPRESENTATION_ITEM('number of views',COUNT_MEASURE(0.));
#18=SHAPE_REPRESENTATION_RELATIONSHIP('None',
'relationship between gelv1214D7C3km4p-None and gelv1214D7C3km4p-None',
#30,#19);
#19=ADVANCED_BREP_SHAPE_REPRESENTATION('gelv1214D7C3km4p-None',(#40),#587);
#20=SHAPE_DEFINITION_REPRESENTATION(#21,#30);
#21=PRODUCT_DEFINITION_SHAPE('','',#22);
#22=PRODUCT_DEFINITION(' ','',#24,#23);
#23=PRODUCT_DEFINITION_CONTEXT('part definition',#29,'design');
#24=PRODUCT_DEFINITION_FORMATION_WITH_SPECIFIED_SOURCE(' ',' ',#26,
 .NOT_KNOWN.);
#25=PRODUCT_RELATED_PRODUCT_CATEGORY('part','',(#26));
#26=PRODUCT('gelv1214D7C3km4p','gelv1214D7C3km4p',' ',(#27));
#27=PRODUCT_CONTEXT(' ',#29,'mechanical');
#28=APPLICATION_PROTOCOL_DEFINITION('international standard',
'automotive_design',2010,#29);
#29=APPLICATION_CONTEXT(
'core data for automotive mechanical design processes');
#30=SHAPE_REPRESENTATION('gelv1214D7C3km4p-None',(#339),#587);
#31=PRESENTATION_LAYER_ASSIGNMENT('1','Layer 1',(#40));
#32=STYLED_ITEM('',(#33),#40);
#33=PRESENTATION_STYLE_ASSIGNMENT((#34));
#34=SURFACE_STYLE_USAGE(.BOTH.,#35);
#35=SURFACE_SIDE_STYLE('',(#36));
#36=SURFACE_STYLE_FILL_AREA(#37);
#37=FILL_AREA_STYLE('',(#38));
#38=FILL_AREA_STYLE_COLOUR('',#39);
#39=COLOUR_RGB('Deep Sky',0.337239642938888,0.694102388036927,1.);
#40=MANIFOLD_SOLID_BREP('',#41);
#41=CLOSED_SHELL('',(#59,#60,#61,#62,#63,#64,#65,#66,#67,#68,#69,#70,#71,
#72,#73,#74,#75,#76,#77,#78,#79,#80,#81,#82,#83,#84,#85));
#42=TOROIDAL_SURFACE('',#362,17.156921966555,1.5);
#43=TOROIDAL_SURFACE('',#368,18.25,2.);
#44=TOROIDAL_SURFACE('',#388,22.,3.5);
#45=CONICAL_SURFACE('',#351,18.4758097429341,7.35234844480352);
#46=CONICAL_SURFACE('',#354,18.4274293816009,7.80630684713161);
#47=CONICAL_SURFACE('',#356,18.4274293816009,7.80630684713161);
#48=CONICAL_SURFACE('',#360,18.4758097429341,7.35234844480352);
#49=CONICAL_SURFACE('',#372,19.845435105928,0.58165611808445);
#50=CONICAL_SURFACE('',#390,28.,44.9999999999986);
#51=CONICAL_SURFACE('',#391,28.,44.9999999999986);
#52=CONICAL_SURFACE('',#392,25.,44.9999999999988);
#53=CONICAL_SURFACE('',#393,20.6499999999999,45.2908280590423);
#54=CYLINDRICAL_SURFACE('',#347,18.5);
#55=CYLINDRICAL_SURFACE('',#366,16.25);
#56=CYLINDRICAL_SURFACE('',#378,25.);
#57=CYLINDRICAL_SURFACE('',#383,28.);
#58=CYLINDRICAL_SURFACE('',#389,18.5);
#59=ADVANCED_FACE('',(#96,#97),#86,.T.);
#60=ADVANCED_FACE('',(#98,#99),#87,.F.);
#61=ADVANCED_FACE('',(#100,#101),#54,.T.);
#62=ADVANCED_FACE('',(#102,#103),#88,.F.);
#63=ADVANCED_FACE('',(#104,#105),#45,.T.);
#64=ADVANCED_FACE('',(#106,#107),#89,.F.);
#65=ADVANCED_FACE('',(#108,#109),#46,.T.);
#66=ADVANCED_FACE('',(#110,#111),#47,.T.);
#67=ADVANCED_FACE('',(#112,#113),#90,.F.);
#68=ADVANCED_FACE('',(#114,#115),#48,.T.);
#69=ADVANCED_FACE('',(#116,#117),#42,.T.);
#70=ADVANCED_FACE('',(#118,#119),#91,.F.);
#71=ADVANCED_FACE('',(#120,#121),#55,.F.);
#72=ADVANCED_FACE('',(#122,#123),#43,.T.);
#73=ADVANCED_FACE('',(#124,#125),#92,.F.);
#74=ADVANCED_FACE('',(#126,#127),#49,.F.);
#75=ADVANCED_FACE('',(#128,#129),#93,.T.);
#76=ADVANCED_FACE('',(#130,#131),#56,.T.);
#77=ADVANCED_FACE('',(#132,#133),#94,.T.);
#78=ADVANCED_FACE('',(#134,#135),#57,.T.);
#79=ADVANCED_FACE('',(#136,#137),#95,.T.);
#80=ADVANCED_FACE('',(#138,#139),#44,.F.);
#81=ADVANCED_FACE('',(#140,#141),#58,.T.);
#82=ADVANCED_FACE('',(#142,#143),#50,.T.);
#83=ADVANCED_FACE('',(#144,#145),#51,.T.);
#84=ADVANCED_FACE('',(#146,#147),#52,.T.);
#85=ADVANCED_FACE('',(#148,#149),#53,.F.);
#86=PLANE('',#342);
#87=PLANE('',#345);
#88=PLANE('',#349);
#89=PLANE('',#353);
#90=PLANE('',#358);
#91=PLANE('',#364);
#92=PLANE('',#370);
#93=PLANE('',#375);
#94=PLANE('',#380);
#95=PLANE('',#386);
#96=FACE_BOUND('',#150,.T.);
#97=FACE_BOUND('',#151,.T.);
#98=FACE_BOUND('',#152,.T.);
#99=FACE_BOUND('',#153,.T.);
#100=FACE_BOUND('',#154,.T.);
#101=FACE_BOUND('',#155,.T.);
#102=FACE_BOUND('',#156,.T.);
#103=FACE_BOUND('',#157,.T.);
#104=FACE_BOUND('',#158,.T.);
#105=FACE_BOUND('',#159,.T.);
#106=FACE_BOUND('',#160,.T.);
#107=FACE_BOUND('',#161,.T.);
#108=FACE_BOUND('',#162,.T.);
#109=FACE_BOUND('',#163,.T.);
#110=FACE_BOUND('',#164,.T.);
#111=FACE_BOUND('',#165,.T.);
#112=FACE_BOUND('',#166,.T.);
#113=FACE_BOUND('',#167,.T.);
#114=FACE_BOUND('',#168,.T.);
#115=FACE_BOUND('',#169,.T.);
#116=FACE_BOUND('',#170,.T.);
#117=FACE_BOUND('',#171,.T.);
#118=FACE_BOUND('',#172,.T.);
#119=FACE_BOUND('',#173,.T.);
#120=FACE_BOUND('',#174,.T.);
#121=FACE_BOUND('',#175,.T.);
#122=FACE_BOUND('',#176,.T.);
#123=FACE_BOUND('',#177,.T.);
#124=FACE_BOUND('',#178,.T.);
#125=FACE_BOUND('',#179,.T.);
#126=FACE_BOUND('',#180,.T.);
#127=FACE_BOUND('',#181,.T.);
#128=FACE_BOUND('',#182,.T.);
#129=FACE_BOUND('',#183,.T.);
#130=FACE_BOUND('',#184,.T.);
#131=FACE_BOUND('',#185,.T.);
#132=FACE_BOUND('',#186,.T.);
#133=FACE_BOUND('',#187,.T.);
#134=FACE_BOUND('',#188,.T.);
#135=FACE_BOUND('',#189,.T.);
#136=FACE_BOUND('',#190,.T.);
#137=FACE_BOUND('',#191,.T.);
#138=FACE_BOUND('',#192,.T.);
#139=FACE_BOUND('',#193,.T.);
#140=FACE_BOUND('',#194,.T.);
#141=FACE_BOUND('',#195,.T.);
#142=FACE_BOUND('',#196,.T.);
#143=FACE_BOUND('',#197,.T.);
#144=FACE_BOUND('',#198,.T.);
#145=FACE_BOUND('',#199,.T.);
#146=FACE_BOUND('',#200,.T.);
#147=FACE_BOUND('',#201,.T.);
#148=FACE_BOUND('',#202,.T.);
#149=FACE_BOUND('',#203,.T.);
#150=EDGE_LOOP('',(#204));
#151=EDGE_LOOP('',(#205));
#152=EDGE_LOOP('',(#206));
#153=EDGE_LOOP('',(#207));
#154=EDGE_LOOP('',(#208));
#155=EDGE_LOOP('',(#209));
#156=EDGE_LOOP('',(#210));
#157=EDGE_LOOP('',(#211));
#158=EDGE_LOOP('',(#212));
#159=EDGE_LOOP('',(#213));
#160=EDGE_LOOP('',(#214));
#161=EDGE_LOOP('',(#215));
#162=EDGE_LOOP('',(#216));
#163=EDGE_LOOP('',(#217));
#164=EDGE_LOOP('',(#218));
#165=EDGE_LOOP('',(#219));
#166=EDGE_LOOP('',(#220));
#167=EDGE_LOOP('',(#221));
#168=EDGE_LOOP('',(#222));
#169=EDGE_LOOP('',(#223));
#170=EDGE_LOOP('',(#224));
#171=EDGE_LOOP('',(#225));
#172=EDGE_LOOP('',(#226));
#173=EDGE_LOOP('',(#227));
#174=EDGE_LOOP('',(#228));
#175=EDGE_LOOP('',(#229));
#176=EDGE_LOOP('',(#230));
#177=EDGE_LOOP('',(#231));
#178=EDGE_LOOP('',(#232));
#179=EDGE_LOOP('',(#233));
#180=EDGE_LOOP('',(#234));
#181=EDGE_LOOP('',(#235));
#182=EDGE_LOOP('',(#236));
#183=EDGE_LOOP('',(#237));
#184=EDGE_LOOP('',(#238));
#185=EDGE_LOOP('',(#239));
#186=EDGE_LOOP('',(#240));
#187=EDGE_LOOP('',(#241));
#188=EDGE_LOOP('',(#242));
#189=EDGE_LOOP('',(#243));
#190=EDGE_LOOP('',(#244));
#191=EDGE_LOOP('',(#245));
#192=EDGE_LOOP('',(#246));
#193=EDGE_LOOP('',(#247));
#194=EDGE_LOOP('',(#248));
#195=EDGE_LOOP('',(#249));
#196=EDGE_LOOP('',(#250));
#197=EDGE_LOOP('',(#251));
#198=EDGE_LOOP('',(#252));
#199=EDGE_LOOP('',(#253));
#200=EDGE_LOOP('',(#254));
#201=EDGE_LOOP('',(#255));
#202=EDGE_LOOP('',(#256));
#203=EDGE_LOOP('',(#257));
#204=ORIENTED_EDGE('',*,*,#285,.T.);
#205=ORIENTED_EDGE('',*,*,#286,.T.);
#206=ORIENTED_EDGE('',*,*,#287,.T.);
#207=ORIENTED_EDGE('',*,*,#288,.T.);
#208=ORIENTED_EDGE('',*,*,#287,.F.);
#209=ORIENTED_EDGE('',*,*,#289,.F.);
#210=ORIENTED_EDGE('',*,*,#290,.F.);
#211=ORIENTED_EDGE('',*,*,#289,.T.);
#212=ORIENTED_EDGE('',*,*,#291,.F.);
#213=ORIENTED_EDGE('',*,*,#290,.T.);
#214=ORIENTED_EDGE('',*,*,#292,.F.);
#215=ORIENTED_EDGE('',*,*,#291,.T.);
#216=ORIENTED_EDGE('',*,*,#286,.F.);
#217=ORIENTED_EDGE('',*,*,#292,.T.);
#218=ORIENTED_EDGE('',*,*,#288,.F.);
#219=ORIENTED_EDGE('',*,*,#293,.T.);
#220=ORIENTED_EDGE('',*,*,#293,.F.);
#221=ORIENTED_EDGE('',*,*,#294,.T.);
#222=ORIENTED_EDGE('',*,*,#295,.T.);
#223=ORIENTED_EDGE('',*,*,#294,.F.);
#224=ORIENTED_EDGE('',*,*,#296,.F.);
#225=ORIENTED_EDGE('',*,*,#295,.F.);
#226=ORIENTED_EDGE('',*,*,#297,.T.);
#227=ORIENTED_EDGE('',*,*,#296,.T.);
#228=ORIENTED_EDGE('',*,*,#297,.F.);
#229=ORIENTED_EDGE('',*,*,#298,.T.);
#230=ORIENTED_EDGE('',*,*,#299,.F.);
#231=ORIENTED_EDGE('',*,*,#298,.F.);
#232=ORIENTED_EDGE('',*,*,#300,.T.);
#233=ORIENTED_EDGE('',*,*,#299,.T.);
#234=ORIENTED_EDGE('',*,*,#301,.T.);
#235=ORIENTED_EDGE('',*,*,#300,.F.);
#236=ORIENTED_EDGE('',*,*,#302,.T.);
#237=ORIENTED_EDGE('',*,*,#303,.T.);
#238=ORIENTED_EDGE('',*,*,#304,.T.);
#239=ORIENTED_EDGE('',*,*,#305,.T.);
#240=ORIENTED_EDGE('',*,*,#306,.T.);
#241=ORIENTED_EDGE('',*,*,#305,.F.);
#242=ORIENTED_EDGE('',*,*,#307,.T.);
#243=ORIENTED_EDGE('',*,*,#308,.T.);
#244=ORIENTED_EDGE('',*,*,#309,.T.);
#245=ORIENTED_EDGE('',*,*,#310,.T.);
#246=ORIENTED_EDGE('',*,*,#310,.F.);
#247=ORIENTED_EDGE('',*,*,#311,.F.);
#248=ORIENTED_EDGE('',*,*,#285,.F.);
#249=ORIENTED_EDGE('',*,*,#311,.T.);
#250=ORIENTED_EDGE('',*,*,#306,.F.);
#251=ORIENTED_EDGE('',*,*,#307,.F.);
#252=ORIENTED_EDGE('',*,*,#309,.F.);
#253=ORIENTED_EDGE('',*,*,#308,.F.);
#254=ORIENTED_EDGE('',*,*,#302,.F.);
#255=ORIENTED_EDGE('',*,*,#304,.F.);
#256=ORIENTED_EDGE('',*,*,#301,.F.);
#257=ORIENTED_EDGE('',*,*,#303,.F.);
#258=VERTEX_POINT('',#506);
#259=VERTEX_POINT('',#508);
#260=VERTEX_POINT('',#511);
#261=VERTEX_POINT('',#513);
#262=VERTEX_POINT('',#516);
#263=VERTEX_POINT('',#519);
#264=VERTEX_POINT('',#522);
#265=VERTEX_POINT('',#525);
#266=VERTEX_POINT('',#529);
#267=VERTEX_POINT('',#532);
#268=VERTEX_POINT('',#535);
#269=VERTEX_POINT('',#538);
#270=VERTEX_POINT('',#541);
#271=VERTEX_POINT('',#544);
#272=VERTEX_POINT('',#547);
#273=VERTEX_POINT('',#550);
#274=VERTEX_POINT('',#553);
#275=VERTEX_POINT('',#556);
#276=VERTEX_POINT('',#558);
#277=VERTEX_POINT('',#561);
#278=VERTEX_POINT('',#563);
#279=VERTEX_POINT('',#566);
#280=VERTEX_POINT('',#569);
#281=VERTEX_POINT('',#571);
#282=VERTEX_POINT('',#574);
#283=VERTEX_POINT('',#576);
#284=VERTEX_POINT('',#579);
#285=EDGE_CURVE('',#258,#258,#312,.T.);
#286=EDGE_CURVE('',#259,#259,#313,.T.);
#287=EDGE_CURVE('',#260,#260,#314,.T.);
#288=EDGE_CURVE('',#261,#261,#315,.T.);
#289=EDGE_CURVE('',#262,#262,#316,.T.);
#290=EDGE_CURVE('',#263,#263,#317,.T.);
#291=EDGE_CURVE('',#264,#264,#318,.T.);
#292=EDGE_CURVE('',#265,#265,#319,.T.);
#293=EDGE_CURVE('',#266,#266,#320,.T.);
#294=EDGE_CURVE('',#267,#267,#321,.T.);
#295=EDGE_CURVE('',#268,#268,#322,.T.);
#296=EDGE_CURVE('',#269,#269,#323,.T.);
#297=EDGE_CURVE('',#270,#270,#324,.T.);
#298=EDGE_CURVE('',#271,#271,#325,.T.);
#299=EDGE_CURVE('',#272,#272,#326,.T.);
#300=EDGE_CURVE('',#273,#273,#327,.T.);
#301=EDGE_CURVE('',#274,#274,#328,.T.);
#302=EDGE_CURVE('',#275,#275,#329,.T.);
#303=EDGE_CURVE('',#276,#276,#330,.T.);
#304=EDGE_CURVE('',#277,#277,#331,.T.);
#305=EDGE_CURVE('',#278,#278,#332,.T.);
#306=EDGE_CURVE('',#279,#279,#333,.T.);
#307=EDGE_CURVE('',#280,#280,#334,.T.);
#308=EDGE_CURVE('',#281,#281,#335,.T.);
#309=EDGE_CURVE('',#282,#282,#336,.T.);
#310=EDGE_CURVE('',#283,#283,#337,.T.);
#311=EDGE_CURVE('',#284,#284,#338,.T.);
#312=CIRCLE('',#340,18.5);
#313=CIRCLE('',#341,19.25);
#314=CIRCLE('',#343,18.5);
#315=CIRCLE('',#344,19.25);
#316=CIRCLE('',#346,18.5);
#317=CIRCLE('',#348,18.4758097429341);
#318=CIRCLE('',#350,19.25);
#319=CIRCLE('',#352,18.4274293816009);
#320=CIRCLE('',#355,18.4274293816009);
#321=CIRCLE('',#357,19.25);
#322=CIRCLE('',#359,18.6445888700801);
#323=CIRCLE('',#361,17.156921966555);
#324=CIRCLE('',#363,16.25);
#325=CIRCLE('',#365,16.25);
#326=CIRCLE('',#367,18.25);
#327=CIRCLE('',#369,19.845435105928);
#328=CIRCLE('',#371,20.1449241799986);
#329=CIRCLE('',#373,24.5);
#330=CIRCLE('',#374,20.6499999999999);
#331=CIRCLE('',#376,25.);
#332=CIRCLE('',#377,25.);
#333=CIRCLE('',#379,27.5);
#334=CIRCLE('',#381,28.);
#335=CIRCLE('',#382,28.);
#336=CIRCLE('',#384,27.5);
#337=CIRCLE('',#385,22.);
#338=CIRCLE('',#387,18.5);
#339=AXIS2_PLACEMENT_3D('',#504,#394,#395);
#340=AXIS2_PLACEMENT_3D('',#505,#396,#397);
#341=AXIS2_PLACEMENT_3D('',#507,#398,#399);
#342=AXIS2_PLACEMENT_3D('',#509,#400,#401);
#343=AXIS2_PLACEMENT_3D('',#510,#402,#403);
#344=AXIS2_PLACEMENT_3D('',#512,#404,#405);
#345=AXIS2_PLACEMENT_3D('',#514,#406,#407);
#346=AXIS2_PLACEMENT_3D('',#515,#408,#409);
#347=AXIS2_PLACEMENT_3D('',#517,#410,#411);
#348=AXIS2_PLACEMENT_3D('',#518,#412,#413);
#349=AXIS2_PLACEMENT_3D('',#520,#414,#415);
#350=AXIS2_PLACEMENT_3D('',#521,#416,#417);
#351=AXIS2_PLACEMENT_3D('',#523,#418,#419);
#352=AXIS2_PLACEMENT_3D('',#524,#420,#421);
#353=AXIS2_PLACEMENT_3D('',#526,#422,#423);
#354=AXIS2_PLACEMENT_3D('',#527,#424,#425);
#355=AXIS2_PLACEMENT_3D('',#528,#426,#427);
#356=AXIS2_PLACEMENT_3D('',#530,#428,#429);
#357=AXIS2_PLACEMENT_3D('',#531,#430,#431);
#358=AXIS2_PLACEMENT_3D('',#533,#432,#433);
#359=AXIS2_PLACEMENT_3D('',#534,#434,#435);
#360=AXIS2_PLACEMENT_3D('',#536,#436,#437);
#361=AXIS2_PLACEMENT_3D('',#537,#438,#439);
#362=AXIS2_PLACEMENT_3D('',#539,#440,#441);
#363=AXIS2_PLACEMENT_3D('',#540,#442,#443);
#364=AXIS2_PLACEMENT_3D('',#542,#444,#445);
#365=AXIS2_PLACEMENT_3D('',#543,#446,#447);
#366=AXIS2_PLACEMENT_3D('',#545,#448,#449);
#367=AXIS2_PLACEMENT_3D('',#546,#450,#451);
#368=AXIS2_PLACEMENT_3D('',#548,#452,#453);
#369=AXIS2_PLACEMENT_3D('',#549,#454,#455);
#370=AXIS2_PLACEMENT_3D('',#551,#456,#457);
#371=AXIS2_PLACEMENT_3D('',#552,#458,#459);
#372=AXIS2_PLACEMENT_3D('',#554,#460,#461);
#373=AXIS2_PLACEMENT_3D('',#555,#462,#463);
#374=AXIS2_PLACEMENT_3D('',#557,#464,#465);
#375=AXIS2_PLACEMENT_3D('',#559,#466,#467);
#376=AXIS2_PLACEMENT_3D('',#560,#468,#469);
#377=AXIS2_PLACEMENT_3D('',#562,#470,#471);
#378=AXIS2_PLACEMENT_3D('',#564,#472,#473);
#379=AXIS2_PLACEMENT_3D('',#565,#474,#475);
#380=AXIS2_PLACEMENT_3D('',#567,#476,#477);
#381=AXIS2_PLACEMENT_3D('',#568,#478,#479);
#382=AXIS2_PLACEMENT_3D('',#570,#480,#481);
#383=AXIS2_PLACEMENT_3D('',#572,#482,#483);
#384=AXIS2_PLACEMENT_3D('',#573,#484,#485);
#385=AXIS2_PLACEMENT_3D('',#575,#486,#487);
#386=AXIS2_PLACEMENT_3D('',#577,#488,#489);
#387=AXIS2_PLACEMENT_3D('',#578,#490,#491);
#388=AXIS2_PLACEMENT_3D('',#580,#492,#493);
#389=AXIS2_PLACEMENT_3D('',#581,#494,#495);
#390=AXIS2_PLACEMENT_3D('',#582,#496,#497);
#391=AXIS2_PLACEMENT_3D('',#583,#498,#499);
#392=AXIS2_PLACEMENT_3D('',#584,#500,#501);
#393=AXIS2_PLACEMENT_3D('',#585,#502,#503);
#394=DIRECTION('',(0.,0.,1.));
#395=DIRECTION('',(1.,0.,0.));
#396=DIRECTION('',(0.,0.,1.));
#397=DIRECTION('',(-1.,0.,0.));
#398=DIRECTION('',(0.,0.,-1.));
#399=DIRECTION('',(-1.,0.,0.));
#400=DIRECTION('',(0.,0.,-1.));
#401=DIRECTION('',(-1.,0.,0.));
#402=DIRECTION('',(0.,0.,1.));
#403=DIRECTION('',(-1.,0.,0.));
#404=DIRECTION('',(0.,0.,-1.));
#405=DIRECTION('',(1.,0.,0.));
#406=DIRECTION('',(0.,0.,1.));
#407=DIRECTION('',(1.,0.,0.));
#408=DIRECTION('',(0.,0.,-1.));
#409=DIRECTION('',(1.,0.,0.));
#410=DIRECTION('',(0.,0.,1.));
#411=DIRECTION('',(1.,0.,0.));
#412=DIRECTION('',(0.,0.,-1.));
#413=DIRECTION('',(1.,0.,0.));
#414=DIRECTION('',(0.,0.,1.));
#415=DIRECTION('',(1.,0.,0.));
#416=DIRECTION('',(0.,0.,-1.));
#417=DIRECTION('',(1.,0.,0.));
#418=DIRECTION('',(0.,0.,-1.));
#419=DIRECTION('',(-1.,0.,-3.29286653134863E-16));
#420=DIRECTION('',(0.,0.,-1.));
#421=DIRECTION('',(1.,0.,0.));
#422=DIRECTION('',(0.,0.,1.));
#423=DIRECTION('',(1.,0.,0.));
#424=DIRECTION('',(0.,0.,-1.));
#425=DIRECTION('',(-1.,0.,2.67699880963107E-16));
#426=DIRECTION('',(0.,0.,-1.));
#427=DIRECTION('',(1.,0.,0.));
#428=DIRECTION('',(0.,0.,-1.));
#429=DIRECTION('',(-1.,0.,-1.78466587308738E-16));
#430=DIRECTION('',(0.,0.,-1.));
#431=DIRECTION('',(1.,0.,0.));
#432=DIRECTION('',(0.,0.,1.));
#433=DIRECTION('',(1.,0.,0.));
#434=DIRECTION('',(0.,0.,-1.));
#435=DIRECTION('',(1.,0.,0.));
#436=DIRECTION('',(0.,0.,-1.));
#437=DIRECTION('',(-1.,0.,0.));
#438=DIRECTION('',(0.,0.,1.));
#439=DIRECTION('',(-1.,0.,0.));
#440=DIRECTION('',(0.,0.,-1.));
#441=DIRECTION('',(-1.,0.,0.));
#442=DIRECTION('',(0.,0.,-1.));
#443=DIRECTION('',(-0.999999999999999,0.,0.));
#444=DIRECTION('',(0.,0.,-1.));
#445=DIRECTION('',(-1.,0.,0.));
#446=DIRECTION('',(0.,0.,-1.));
#447=DIRECTION('',(0.999999999999999,0.,0.));
#448=DIRECTION('',(0.,0.,-1.));
#449=DIRECTION('',(-0.999999999999999,0.,0.));
#450=DIRECTION('',(0.,0.,1.));
#451=DIRECTION('',(0.999999999999999,0.,0.));
#452=DIRECTION('',(0.,0.,1.));
#453=DIRECTION('',(0.999999999999999,0.,0.));
#454=DIRECTION('',(0.,0.,-1.));
#455=DIRECTION('',(1.,0.,0.));
#456=DIRECTION('',(0.,0.,1.));
#457=DIRECTION('',(1.,0.,0.));
#458=DIRECTION('',(0.,0.,-1.));
#459=DIRECTION('',(-1.,0.,0.));
#460=DIRECTION('',(0.,0.,-1.));
#461=DIRECTION('',(-1.,0.,9.25259928879296E-16));
#462=DIRECTION('',(0.,0.,-1.));
#463=DIRECTION('',(-1.,0.,0.));
#464=DIRECTION('',(0.,0.,1.));
#465=DIRECTION('',(-1.,0.,0.));
#466=DIRECTION('',(0.,0.,-1.));
#467=DIRECTION('',(-1.,0.,0.));
#468=DIRECTION('',(0.,0.,1.));
#469=DIRECTION('',(-1.,0.,0.));
#470=DIRECTION('',(0.,0.,-1.));
#471=DIRECTION('',(1.,0.,0.));
#472=DIRECTION('',(0.,0.,1.));
#473=DIRECTION('',(1.,0.,0.));
#474=DIRECTION('',(0.,0.,-1.));
#475=DIRECTION('',(-1.,0.,0.));
#476=DIRECTION('',(0.,0.,-1.));
#477=DIRECTION('',(-1.,0.,0.));
#478=DIRECTION('',(0.,0.,1.));
#479=DIRECTION('',(-1.,0.,0.));
#480=DIRECTION('',(0.,0.,-1.));
#481=DIRECTION('',(1.,0.,0.));
#482=DIRECTION('',(0.,0.,1.));
#483=DIRECTION('',(1.,0.,0.));
#484=DIRECTION('',(0.,0.,1.));
#485=DIRECTION('',(1.,0.,0.));
#486=DIRECTION('',(0.,0.,-1.));
#487=DIRECTION('',(1.,0.,0.));
#488=DIRECTION('',(0.,0.,1.));
#489=DIRECTION('',(1.,0.,0.));
#490=DIRECTION('',(0.,0.,1.));
#491=DIRECTION('',(1.,0.,0.));
#492=DIRECTION('',(0.,0.,1.));
#493=DIRECTION('',(1.,0.,0.));
#494=DIRECTION('',(0.,0.,1.));
#495=DIRECTION('',(1.,0.,0.));
#496=DIRECTION('',(0.,0.,1.));
#497=DIRECTION('',(1.,0.,-2.69995871747376E-17));
#498=DIRECTION('',(0.,0.,-1.));
#499=DIRECTION('',(-1.,0.,-2.02496903810532E-17));
#500=DIRECTION('',(0.,0.,1.));
#501=DIRECTION('',(1.,0.,-5.37341174266008E-17));
#502=DIRECTION('',(0.,0.,-1.));
#503=DIRECTION('',(-1.,0.,0.));
#504=CARTESIAN_POINT('',(0.,0.,0.));
#505=CARTESIAN_POINT('',(281.,0.,45.));
#506=CARTESIAN_POINT('',(262.5,0.,45.));
#507=CARTESIAN_POINT('',(281.,0.,45.));
#508=CARTESIAN_POINT('',(261.75,0.,45.));
#509=CARTESIAN_POINT('',(298.75,75.,45.));
#510=CARTESIAN_POINT('',(281.,0.,67.));
#511=CARTESIAN_POINT('',(262.5,0.,67.));
#512=CARTESIAN_POINT('',(281.,0.,67.));
#513=CARTESIAN_POINT('',(300.25,0.,67.));
#514=CARTESIAN_POINT('',(300.25,0.,67.));
#515=CARTESIAN_POINT('',(281.,0.,57.));
#516=CARTESIAN_POINT('',(299.5,0.,57.));
#517=CARTESIAN_POINT('',(281.,0.,29.));
#518=CARTESIAN_POINT('',(281.,0.,57.));
#519=CARTESIAN_POINT('',(299.475809742934,0.,57.));
#520=CARTESIAN_POINT('',(281.,0.,57.));
#521=CARTESIAN_POINT('',(281.,0.,51.));
#522=CARTESIAN_POINT('',(300.25,0.,51.));
#523=CARTESIAN_POINT('',(281.,0.,57.));
#524=CARTESIAN_POINT('',(281.,0.,51.));
#525=CARTESIAN_POINT('',(299.427429381601,0.,51.));
#526=CARTESIAN_POINT('',(300.25,0.,51.));
#527=CARTESIAN_POINT('',(281.,0.,51.));
#528=CARTESIAN_POINT('',(281.,0.,73.));
#529=CARTESIAN_POINT('',(299.427429381601,0.,73.));
#530=CARTESIAN_POINT('',(281.,0.,73.));
#531=CARTESIAN_POINT('',(281.,0.,73.));
#532=CARTESIAN_POINT('',(300.25,0.,73.));
#533=CARTESIAN_POINT('',(300.25,0.,73.));
#534=CARTESIAN_POINT('',(281.,0.,77.6919562037447));
#535=CARTESIAN_POINT('',(299.64458887008,0.,77.6919562037447));
#536=CARTESIAN_POINT('',(281.,0.,79.));
#537=CARTESIAN_POINT('',(281.,0.,79.));
#538=CARTESIAN_POINT('',(263.843078033445,0.,79.));
#539=CARTESIAN_POINT('',(281.,0.,77.5));
#540=CARTESIAN_POINT('',(281.,0.,79.));
#541=CARTESIAN_POINT('',(264.75,0.,79.));
#542=CARTESIAN_POINT('',(297.25,0.,79.));
#543=CARTESIAN_POINT('',(281.,0.,32.));
#544=CARTESIAN_POINT('',(297.25,0.,32.));
#545=CARTESIAN_POINT('',(281.,0.,118.));
#546=CARTESIAN_POINT('',(281.,0.,30.));
#547=CARTESIAN_POINT('',(299.25,0.,30.));
#548=CARTESIAN_POINT('',(281.,0.,32.));
#549=CARTESIAN_POINT('',(281.,0.,30.));
#550=CARTESIAN_POINT('',(300.845435105928,0.,30.));
#551=CARTESIAN_POINT('',(281.,0.,30.));
#552=CARTESIAN_POINT('',(281.,0.,0.499974235387498));
#553=CARTESIAN_POINT('',(260.855075820001,0.,0.499974235387498));
#554=CARTESIAN_POINT('',(281.,0.,30.));
#555=CARTESIAN_POINT('',(281.,0.,0.));
#556=CARTESIAN_POINT('',(256.5,0.,0.));
#557=CARTESIAN_POINT('',(281.,0.,0.));
#558=CARTESIAN_POINT('',(260.35,0.,0.));
#559=CARTESIAN_POINT('',(281.,0.,0.));
#560=CARTESIAN_POINT('',(281.,0.,0.5));
#561=CARTESIAN_POINT('',(256.,0.,0.5));
#562=CARTESIAN_POINT('',(281.,0.,30.));
#563=CARTESIAN_POINT('',(306.,0.,30.));
#564=CARTESIAN_POINT('',(281.,0.,0.));
#565=CARTESIAN_POINT('',(281.,0.,30.));
#566=CARTESIAN_POINT('',(253.5,0.,30.));
#567=CARTESIAN_POINT('',(281.,0.,30.));
#568=CARTESIAN_POINT('',(281.,0.,30.5));
#569=CARTESIAN_POINT('',(253.,0.,30.5));
#570=CARTESIAN_POINT('',(281.,0.,34.5));
#571=CARTESIAN_POINT('',(309.,0.,34.5));
#572=CARTESIAN_POINT('',(281.,0.,30.));
#573=CARTESIAN_POINT('',(281.,0.,35.));
#574=CARTESIAN_POINT('',(308.5,0.,35.));
#575=CARTESIAN_POINT('',(281.,0.,35.));
#576=CARTESIAN_POINT('',(303.,0.,35.));
#577=CARTESIAN_POINT('',(281.,0.,35.));
#578=CARTESIAN_POINT('',(281.,0.,38.5));
#579=CARTESIAN_POINT('',(299.5,0.,38.5));
#580=CARTESIAN_POINT('',(281.,0.,38.5));
#581=CARTESIAN_POINT('',(281.,0.,35.));
#582=CARTESIAN_POINT('',(281.,0.,30.5));
#583=CARTESIAN_POINT('',(281.,0.,34.5));
#584=CARTESIAN_POINT('',(281.,0.,0.5));
#585=CARTESIAN_POINT('',(281.,0.,0.));
#586=MECHANICAL_DESIGN_GEOMETRIC_PRESENTATION_REPRESENTATION('',(#32),#587);
#587=(
GEOMETRIC_REPRESENTATION_CONTEXT(3)
GLOBAL_UNCERTAINTY_ASSIGNED_CONTEXT((#588))
GLOBAL_UNIT_ASSIGNED_CONTEXT((#594,#590,#589))
REPRESENTATION_CONTEXT('PVC HOSE CONNECTION SxS DIN 50-38MM GREY',
'TOP_LEVEL_ASSEMBLY_PART')
);
#588=UNCERTAINTY_MEASURE_WITH_UNIT(LENGTH_MEASURE(2.E-5),#594,
'DISTANCE_ACCURACY_VALUE','Maximum Tolerance applied to model');
#589=(
NAMED_UNIT(*)
SI_UNIT($,.STERADIAN.)
SOLID_ANGLE_UNIT()
);
#590=(
CONVERSION_BASED_UNIT('DEGREE',#592)
NAMED_UNIT(#591)
PLANE_ANGLE_UNIT()
);
#591=DIMENSIONAL_EXPONENTS(0.,0.,0.,0.,0.,0.,0.);
#592=PLANE_ANGLE_MEASURE_WITH_UNIT(PLANE_ANGLE_MEASURE(0.0174532925),#593);
#593=(
NAMED_UNIT(*)
PLANE_ANGLE_UNIT()
SI_UNIT($,.RADIAN.)
);
#594=(
LENGTH_UNIT()
NAMED_UNIT(*)
SI_UNIT(.MILLI.,.METRE.)
);
ENDSEC;
END-ISO-10303-21;
